  0
SECTION
  2
HEADER
  9
$ACADVER
  1
AC1009
  9
$INSBASE
 10
0
 20
0
 30
0
  9
$EXTMIN
 10
0
 20
0
  9
$EXTMAX
 10
420
 20
297
  9
$LIMMIN
 10
0
 20
0
  9
$LIMMAX
 10
420
 20
297
  9
$LTSCALE
 40
1
  0
ENDSEC
  0
SECTION
  2
TABLES
  0
TABLE
  2
LTYPE
 70
     9
  0
LTYPE
  2
CONTINUOUS
 70
    64
  3
実線
 72
    65
 73
     0
 40
0.0
  0
LTYPE
  2
DASHED1
 70
    64
  3
--  --  --  --  --  --  --  --  
 72
    65
 73
     2
 40
2.5
 49
1.25
 49
-1.25
  0
LTYPE
  2
DASHED2
 70
    64
  3
----    ----    ----    ----    
 72
    65
 73
     2
 40
5.0
 49
2.5
 49
-2.5
  0
LTYPE
  2
DASHED3
 70
    64
  3
------  ------  ------  ------  
 72
    65
 73
     2
 40
5.0
 49
3.75
 49
-1.25
  0
LTYPE
  2
CENTER1
 70
    64
  3
----- - ----- - ----- - ----- - 
 72
    65
 73
     4
 40
10.0
 49
6.25
 49
-1.25
 49
1.25
 49
-1.25
  0
LTYPE
  2
CENTER2
 70
    64
  3
----------  --  ----------  --  
 72
    65
 73
     4
 40
20.0
 49
12.5
 49
-2.5
 49
2.5
 49
-2.5
  0
LTYPE
  2
PHANTOM1
 70
    64
  3
--- - - --- - - --- - - --- - - 
 72
    65
 73
     6
 40
10.0
 49
3.25
 49
-1.25
 49
1.25
 49
-1.25
 49
1.25
 49
-1.25
  0
LTYPE
  2
PHANTOM2
 70
    64
  3
--------  -  -  --------  -  -  
 72
    65
 73
     6
 40
20.0
 49
10.0
 49
-2.5
 49
1.25
 49
-2.5
 49
1.25
 49
-2.5
  0
LTYPE
  2
DOT
 70
    64
  3
-   -   -   -   -   -   -   -   
 72
    65
 73
     2
 40
2.5
 49
0.625
 49
-1.875
  0
LTYPE
  2
DUMMY
 70
    64
  3
ダミー
 72
    65
 73
     0
 40
0.0
  0
LTYPE
  2
RAND1
 70
    64
  3
ランダム線1
 72
    65
 73
     4
 40
10.0
 49
1.0
 49
-2.0
 49
3.0
 49
-4.0
  0
LTYPE
  2
RAND2
 70
    64
  3
ランダム線2
 72
    65
 73
     4
 40
14.0
 49
2.0
 49
-3.0
 49
4.0
 49
-5.0
  0
LTYPE
  2
RAND3
 70
    64
  3
ランダム線3
 72
    65
 73
     4
 40
18.0
 49
3.0
 49
-4.0
 49
5.0
 49
-6.0
  0
LTYPE
  2
RAND4
 70
    64
  3
ランダム線4
 72
    65
 73
     4
 40
22.0
 49
4.0
 49
-5.0
 49
6.0
 49
-7.0
  0
LTYPE
  2
RAND5
 70
    64
  3
ランダム線5
 72
    65
 73
     4
 40
26.0
 49
5.0
 49
-6.0
 49
7.0
 49
-8.0
  0
LTYPE
  2
LONG1
 70
    64
  3
----------  --  ----------  --  
 72
    65
 73
     4
 40
40.0
 49
32.5
 49
-2.5
 49
2.5
 49
-2.5
  0
LTYPE
  2
LONG2
 70
    64
  3
--------  -  -  --------  -  -  
 72
    65
 73
     6
 40
40.0
 49
30.0
 49
-2.5
 49
1.25
 49
-2.5
 49
1.25
 49
-2.5
  0
LTYPE
  2
LONG3
 70
    64
  3
+++++++++++++++..+++++++++++++++
 72
    65
 73
     2
 40
40.0
 49
37.5
 49
-2.5
  0
LTYPE
  2
LONG4
 70
    64
  3
+++++++++++++++..+++++++++++++++
 72
    65
 73
     2
 40
80.0
 49
75.0
 49
-5.0
  0
LTYPE
  2
LONG5
 70
    64
  3
----------  --  ----------  --  
 72
    65
 73
     4
 40
60.0
 49
37.5
 49
-7.5
 49
7.5
 49
-7.5
  0
LTYPE
  2
dashed
 70
   64
  3
-------   -------------   ------
 72
   65
 73
    2
 40
7.5
 49
6
 49
-1.5
  0
LTYPE
  2
dashed_spaced
 70
   64
  3
----        --------        ----
 72
   65
 73
    2
 40
12
 49
6
 49
-6
  0
LTYPE
  2
long_dashed_dotted
 70
   64
  3
------------- --- --------------
 72
   65
 73
    4
 40
15.25
 49
12
 49
-1.5
 49
0.25
 49
-1.5
  0
LTYPE
  2
long_dashed_double-dotted
 70
   64
  3
----------- --- --- ------------
 72
   65
 73
    6
 40
17
 49
12
 49
-1.5
 49
0.25
 49
-1.5
 49
0.25
 49
-1.5
  0
LTYPE
  2
long_dashed_triplicate-dotted
 70
   64
  3
--------- --- --- --- ----------
 72
   65
 73
    8
 40
18.75
 49
12
 49
-1.5
 49
0.25
 49
-1.5
 49
0.25
 49
-1.5
 49
0.25
 49
-1.5
  0
LTYPE
  2
dotted
 70
   64
  3
   -       -       -       -    
 72
   65
 73
    2
 40
1.75
 49
0.25
 49
-1.5
  0
LTYPE
  2
chain
 70
   64
  3
-------------- -- --------------
 72
   65
 73
    4
 40
18.5
 49
12
 49
-1.5
 49
3.5
 49
-1.5
  0
LTYPE
  2
chain_double_dash
 70
   64
  3
------------ -- -- -------------
 72
   65
 73
    6
 40
23.5
 49
12
 49
-1.5
 49
3.5
 49
-1.5
 49
3.5
 49
-1.5
  0
LTYPE
  2
dashed_dotted
 70
   64
  3
-----------     -     ----------
 72
   65
 73
    4
 40
9.25
 49
6
 49
-1.5
 49
0.25
 49
-1.5
  0
LTYPE
  2
double-dashed_dotted
 70
   64
  3
------   -----------   -   -----
 72
   65
 73
    6
 40
16.75
 49
6
 49
-1.5
 49
6
 49
-1.5
 49
0.25
 49
-1.5
  0
LTYPE
  2
dashed_double-dotted
 70
   64
  3
---------    -    -    ---------
 72
   65
 73
    6
 40
11
 49
6
 49
-1.5
 49
0.25
 49
-1.5
 49
0.25
 49
-1.5
  0
LTYPE
  2
double-dashed_double-dotted
 70
   64
  3
-----   ---------   -   -   ----
 72
   65
 73
    8
 40
18.5
 49
6
 49
-1.5
 49
6
 49
-1.5
 49
0.25
 49
-1.5
 49
0.25
 49
-1.5
  0
LTYPE
  2
dashed_triplicate-dotted
 70
   64
  3
-------    -    -    -    ------
 72
   65
 73
    8
 40
12.75
 49
6
 49
-1.5
 49
0.25
 49
-1.5
 49
0.25
 49
-1.5
 49
0.25
 49
-1.5
  0
LTYPE
  2
double-dashed_triplicate-dotted
 70
   64
  3
-----  ---------  -  -  -  -----
 72
   65
 73
   10
 40
20.25
 49
6
 49
-1.5
 49
6
 49
-1.5
 49
0.25
 49
-1.5
 49
0.25
 49
-1.5
 49
0.25
 49
-1.5
  0
LTYPE
  2
undefined
 70
   64
  3
--------------------------------
 72
   65
 73
    0
 40
0
  0
LTYPE
  2
HIDDEN
 70
   64
  3
------     -----------     -----
 72
   65
 73
    2
 40
1.905
 49
1.27
 49
-0.635
  0
LTYPE
  2
PHANTOM
 70
   64
  3
---------   ---   ---   --------
 72
   65
 73
    6
 40
12.699999999999998
 49
6.3499999999999996
 49
-1.27
 49
1.27
 49
-1.27
 49
1.27
 49
-1.27
  0
LTYPE
  2
DOT2
 70
   64
  3
-               -               
 72
   65
 73
    2
 40
0.645
 49
0.01
 49
-0.635
  0
LTYPE
  2
_
 70
   64
  3
                                
 72
   65
 73
    0
 40
0
  0
LTYPE
  2
__21
 70
   64
  3
                                
 72
   65
 73
    0
 40
0
  0
LTYPE
  2
__22
 70
   64
  3
                                
 72
   65
 73
    0
 40
0
  0
LTYPE
  2
__23
 70
   64
  3
                                
 72
   65
 73
    0
 40
0
  0
LTYPE
  2
__24
 70
   64
  3
                                
 72
   65
 73
    0
 40
0
  0
LTYPE
  2
__25
 70
   64
  3
                                
 72
   65
 73
    0
 40
0
  0
LTYPE
  2
__26
 70
   64
  3
                                
 72
   65
 73
    0
 40
0
  0
LTYPE
  2
__27
 70
   64
  3
                                
 72
   65
 73
    0
 40
0
  0
LTYPE
  2
__28
 70
   64
  3
                                
 72
   65
 73
    0
 40
0
  0
LTYPE
  2
__29
 70
   64
  3
                                
 72
   65
 73
    0
 40
0
  0
LTYPE
  2
__30
 70
   64
  3
                                
 72
   65
 73
    0
 40
0
  0
LTYPE
  2
__31
 70
   64
  3
                                
 72
   65
 73
    0
 40
0
  0
LTYPE
  2
__32
 70
   64
  3
                                
 72
   65
 73
    0
 40
0
  0
ENDTAB
  0
TABLE
  2
STYLE
  5
3
100
AcDbSymbolTable
 70
     1
  0
STYLE
  5
10
100
AcDbSymbolTableRecord
100
AcDbTextStyleTableRecord
  2
STANDARD
 70
     0
 40
0.0
 41
1.0
 50
0.0
 71
     0
 42
0.2
  3
txt
  4
bigfont.shx
  0
STYLE
  5
26
100
AcDbSymbolTableRecord
100
AcDbTextStyleTableRecord
  2
TATEGAKI
 70
    68
 40
0.0
 41
1.0
 50
0.0
 71
     0
 42
1.0
  3
txt
  4
bigfont.shx
  0
ENDTAB
  0
TABLE
  2
LAYER
 70
    2
  0
LAYER
  2
_0-0_0
 70
   64
 62
    7
  6
CONTINUOUS
  0
LAYER
  2
ADD_LINE
 70
   64
 62
    7
  6
CONTINUOUS
  0
ENDTAB
  0
ENDSEC
  0
SECTION
  2
BLOCKS
  0
BLOCK
  2
-000-_DOT
 70
   64
 10
0
 20
0
 30
0
  0
CIRCLE
  8
_0-0_0
  6
CONTINUOUS
 62
    7
 10
0
 20
0
 40
0.25
  0
CIRCLE
  8
_0-0_0
  6
CONTINUOUS
 62
    7
 10
0
 20
-0
 40
0.25
  0
LINE
  8
_0-0_0
  6
CONTINUOUS
 62
    7
 10
-0.5
 20
0
 11
-1
 21
0
  0
ENDBLK
  0
BLOCK
  2
-001-_D
 70
   64
 10
0
 20
0
 30
0
  0
INSERT
  2
-000-_DOT
  8
_0-0_0
 10
339.8437953454
 20
193.70123196919999
 41
1
 42
1
 50
0.0001553938
  0
INSERT
  2
-000-_DOT
  8
_0-0_0
 10
321.24381998540002
 20
193.7011815235
 41
1
 42
1
 50
180.00015539379999
  0
LINE
  8
_0-0_0
  6
CONTINUOUS
 62
    7
 10
339.84376049029999
 20
206.55277235669999
 11
339.84379805750001
 21
192.70123196919999
  0
LINE
  8
_0-0_0
  6
CONTINUOUS
 62
    7
 10
321.24378513030001
 20
206.55272191110001
 11
321.24382269760002
 21
192.7011815235
  0
LINE
  8
_0-0_0
  6
CONTINUOUS
 62
    7
 10
339.8437953454
 20
193.70123196919999
 11
321.24381998540002
 21
193.7011815235
  0
TEXT
  8
_0-0_0
 62
    7
 10
326.66463608139998
 20
195.5116333297
 40
3.5
 41
0.6999999999999999
 50
0.0001553938000337
  1
930
  0
ENDBLK
  0
BLOCK
  2
-002-_D_1
 70
   64
 10
0
 20
0
 30
0
  0
INSERT
  2
-000-_DOT
  8
_0-0_0
 10
349.84527221989998
 20
248.56139944130001
 41
1
 42
1
 50
90
  0
INSERT
  2
-000-_DOT
  8
_0-0_0
 10
349.84527221989998
 20
229.96139944129999
 41
1
 42
1
 50
270
  0
LINE
  8
_0-0_0
  6
CONTINUOUS
 62
    7
 10
340.1437717645
 20
248.56139944130001
 11
350.84527221989998
 21
248.56139944130001
  0
LINE
  8
_0-0_0
  6
CONTINUOUS
 62
    7
 10
340.1437717645
 20
229.96139944129999
 11
350.84527221989998
 21
229.96139944129999
  0
LINE
  8
_0-0_0
  6
CONTINUOUS
 62
    7
 10
349.84527221989998
 20
248.56139944130001
 11
349.84527221989998
 21
229.96139944129999
  0
TEXT
  8
_0-0_0
 62
    7
 10
348.03483511569999
 20
235.38223276740001
 40
3.5
 41
0.6999999999999999
 50
90
  1
930
  0
ENDBLK
  0
BLOCK
  2
-003-_D_2
 70
   64
 10
0
 20
0
 30
0
  0
INSERT
  2
-000-_DOT
  8
_0-0_0
 10
403.54899013580001
 20
207.9012067461
 41
1
 42
1
 50
90
  0
INSERT
  2
-000-_DOT
  8
_0-0_0
 10
403.54899013580001
 20
203.70120674610001
 41
1
 42
1
 50
270
  0
LINE
  8
_0-0_0
  6
CONTINUOUS
 62
    7
 10
393.42749013579999
 20
207.9012067461
 11
404.54899013580001
 21
207.9012067461
  0
LINE
  8
_0-0_0
  6
CONTINUOUS
 62
    7
 10
391.68749013579998
 20
203.70120674610001
 11
404.54899013580001
 21
203.70120674610001
  0
LINE
  8
_0-0_0
  6
CONTINUOUS
 62
    7
 10
403.54899013580001
 20
207.9012067461
 11
403.54899013580001
 21
203.70120674610001
  0
LINE
  8
_0-0_0
  6
CONTINUOUS
 62
    7
 10
403.54899013580001
 20
203.70120674610001
 11
403.54899013580001
 21
193.0032898286
  0
TEXT
  8
_0-0_0
 62
    7
 10
401.73855303170001
 20
193.0032898286
 40
3.5
 41
0.6999999999999999
 50
90
  1
210
  0
ENDBLK
  0
BLOCK
  2
-004-_D_3
 70
   64
 10
0
 20
0
 30
0
  0
INSERT
  2
-000-_DOT
  8
_0-0_0
 10
67.955370701800007
 20
101.8475439712
 41
1
 42
1
 50
0
  0
INSERT
  2
-000-_DOT
  8
_0-0_0
 10
49.355391151200003
 20
101.8475439712
 41
1
 42
1
 50
180
  0
LINE
  8
_0-0_0
  6
CONTINUOUS
 62
    7
 10
67.955370701800007
 20
117.0988952089
 11
67.955370701800007
 21
100.8475439712
  0
LINE
  8
_0-0_0
  6
CONTINUOUS
 62
    7
 10
49.355391151200003
 20
117.0988952089
 11
49.355391151200003
 21
100.8475439712
  0
LINE
  8
_0-0_0
  6
CONTINUOUS
 62
    7
 10
67.955370701800007
 20
101.8475439712
 11
49.355391151200003
 21
101.8475439712
  0
TEXT
  8
_0-0_0
 62
    7
 10
54.776214252700001
 20
103.6579810754
 40
3.5
 41
0.6999999999999999
 50
0
  1
930
  0
ENDBLK
  0
BLOCK
  2
-005-_D_4
 70
   64
 10
0
 20
0
 30
0
  0
INSERT
  2
-000-_DOT
  8
_0-0_0
 10
77.956879454399996
 20
159.8468524477
 41
1
 42
1
 50
90
  0
INSERT
  2
-000-_DOT
  8
_0-0_0
 10
77.956879454399996
 20
141.24685244770001
 41
1
 42
1
 50
270
  0
LINE
  8
_0-0_0
  6
CONTINUOUS
 62
    7
 10
68.255378999000001
 20
159.8468524477
 11
78.956879454399996
 21
159.8468524477
  0
LINE
  8
_0-0_0
  6
CONTINUOUS
 62
    7
 10
68.255378999000001
 20
141.24685244770001
 11
78.956879454399996
 21
141.24685244770001
  0
LINE
  8
_0-0_0
  6
CONTINUOUS
 62
    7
 10
77.956879454399996
 20
159.8468524477
 11
77.956879454399996
 21
141.24685244770001
  0
TEXT
  8
_0-0_0
 62
    7
 10
76.146442350200005
 20
146.6676857738
 40
3.5
 41
0.6999999999999999
 50
90
  1
930
  0
ENDBLK
  0
BLOCK
  2
-006-_D_5
 70
   64
 10
0
 20
0
 30
0
  0
INSERT
  2
-000-_DOT
  8
_0-0_0
 10
127.7609326028
 20
118.44754397120001
 41
1
 42
1
 50
90
  0
INSERT
  2
-000-_DOT
  8
_0-0_0
 10
127.7609326028
 20
111.8475439712
 41
1
 42
1
 50
270
  0
LINE
  8
_0-0_0
  6
CONTINUOUS
 62
    7
 10
117.6394326028
 20
118.44754397120001
 11
128.76093260280001
 21
118.44754397120001
  0
LINE
  8
_0-0_0
  6
CONTINUOUS
 62
    7
 10
115.8994326028
 20
111.8475439712
 11
128.76093260280001
 21
111.8475439712
  0
LINE
  8
_0-0_0
  6
CONTINUOUS
 62
    7
 10
127.7609326028
 20
118.44754397120001
 11
127.7609326028
 21
111.8475439712
  0
LINE
  8
_0-0_0
  6
CONTINUOUS
 62
    7
 10
127.7609326028
 20
111.8475439712
 11
127.7609326028
 21
101.1496270537
  0
TEXT
  8
_0-0_0
 62
    7
 10
125.95049549860001
 20
101.1496270537
 40
3.5
 41
0.6999999999999999
 50
90
  1
330
  0
ENDBLK
  0
BLOCK
  2
-007-_D_6
 70
   64
 10
0
 20
0
 30
0
  0
INSERT
  2
-000-_DOT
  8
_0-0_0
 10
74.555242215899995
 20
193.70120674610001
 41
1
 42
1
 50
360
  0
INSERT
  2
-000-_DOT
  8
_0-0_0
 10
42.755519598600003
 20
193.70120674610001
 41
1
 42
1
 50
180
  0
LINE
  8
_0-0_0
  6
CONTINUOUS
 62
    7
 10
74.555242215899995
 20
206.54564231699999
 11
74.555242215899995
 21
192.70120674610001
  0
LINE
  8
_0-0_0
  6
CONTINUOUS
 62
    7
 10
42.755519598600003
 20
206.54564231699999
 11
42.755519598600003
 21
192.70120674610001
  0
LINE
  8
_0-0_0
  6
CONTINUOUS
 62
    7
 10
74.555242215899995
 20
193.70120674610001
 11
42.755519598600003
 21
193.70120674610001
  0
TEXT
  8
_0-0_0
 62
    7
 10
53.4831585202
 20
195.5116438503
 40
3.5
 41
0.6999999999999999
 50
0
  1
1590
  0
ENDBLK
  0
BLOCK
  2
-008-_D_7
 70
   64
 10
0
 20
0
 30
0
  0
INSERT
  2
-000-_DOT
  8
_0-0_0
 10
84.556879454400004
 20
244.46139944129999
 41
1
 42
1
 50
90
  0
INSERT
  2
-000-_DOT
  8
_0-0_0
 10
84.556879454400004
 20
234.06139944130001
 41
1
 42
1
 50
270
  0
LINE
  8
_0-0_0
  6
CONTINUOUS
 62
    7
 10
74.855379453699996
 20
244.46139944129999
 11
85.556879454400004
 21
244.46139944129999
  0
LINE
  8
_0-0_0
  6
CONTINUOUS
 62
    7
 10
74.855379453699996
 20
234.06139944130001
 11
85.556879454400004
 21
234.06139944130001
  0
LINE
  8
_0-0_0
  6
CONTINUOUS
 62
    7
 10
84.556879454400004
 20
244.46139944129999
 11
84.556879454400004
 21
234.06139944130001
  0
TEXT
  8
_0-0_0
 62
    7
 10
82.746442350199999
 20
235.38223276740001
 40
3.5
 41
0.6999999999999999
 50
90
  1
520
  0
ENDBLK
  0
BLOCK
  2
-009-_D_8
 70
   64
 10
0
 20
0
 30
0
  0
INSERT
  2
-000-_DOT
  8
_0-0_0
 10
123.6609326028
 20
207.9012067461
 41
1
 42
1
 50
90
  0
INSERT
  2
-000-_DOT
  8
_0-0_0
 10
123.6609326028
 20
203.70120674610001
 41
1
 42
1
 50
270
  0
LINE
  8
_0-0_0
  6
CONTINUOUS
 62
    7
 10
113.53943260280001
 20
207.9012067461
 11
124.6609326028
 21
207.9012067461
  0
LINE
  8
_0-0_0
  6
CONTINUOUS
 62
    7
 10
112.9994326028
 20
203.70120674610001
 11
124.6609326028
 21
203.70120674610001
  0
LINE
  8
_0-0_0
  6
CONTINUOUS
 62
    7
 10
123.6609326028
 20
207.9012067461
 11
123.6609326028
 21
203.70120674610001
  0
LINE
  8
_0-0_0
  6
CONTINUOUS
 62
    7
 10
123.6609326028
 20
203.70120674610001
 11
123.6609326028
 21
193.0032898286
  0
TEXT
  8
_0-0_0
 62
    7
 10
121.8504954986
 20
193.0032898286
 40
3.5
 41
0.6999999999999999
 50
90
  1
210
  0
ENDBLK
  0
BLOCK
  2
-010-_D_9
 70
   64
 10
0
 20
0
 30
0
  0
INSERT
  2
-000-_DOT
  8
_0-0_0
 10
179.39502930739999
 20
192.5012067461
 41
1
 42
1
 50
180
  0
INSERT
  2
-000-_DOT
  8
_0-0_0
 10
211.1858465114
 20
192.5012067461
 41
1
 42
1
 50
0
  0
LINE
  8
_0-0_0
  6
CONTINUOUS
 62
    7
 10
179.39502930739999
 20
207.78388691009999
 11
179.39502930739999
 21
191.5012067461
  0
LINE
  8
_0-0_0
  6
CONTINUOUS
 62
    7
 10
211.1858465114
 20
207.78388691009999
 11
211.1858465114
 21
191.5012067461
  0
LINE
  8
_0-0_0
  6
CONTINUOUS
 62
    7
 10
179.39502930739999
 20
192.5012067461
 11
211.1858465114
 21
192.5012067461
  0
TEXT
  8
_0-0_0
 62
    7
 10
190.11821552239999
 20
194.31164385029999
 40
3.5
 41
0.6999999999999999
 50
0
  1
1590
  0
ENDBLK
  0
BLOCK
  2
-011-_D_10
 70
   64
 10
0
 20
0
 30
0
  0
INSERT
  2
-000-_DOT
  8
_0-0_0
 10
221.1919469302
 20
244.46139944129999
 41
1
 42
1
 50
90
  0
INSERT
  2
-000-_DOT
  8
_0-0_0
 10
221.1919469302
 20
234.06139944130001
 41
1
 42
1
 50
270
  0
LINE
  8
_0-0_0
  6
CONTINUOUS
 62
    7
 10
211.49044647490001
 20
244.46139944129999
 11
222.1919469302
 21
244.46139944129999
  0
LINE
  8
_0-0_0
  6
CONTINUOUS
 62
    7
 10
211.49044647490001
 20
234.06139944130001
 11
222.1919469302
 21
234.06139944130001
  0
LINE
  8
_0-0_0
  6
CONTINUOUS
 62
    7
 10
221.1919469302
 20
244.46139944129999
 11
221.1919469302
 21
234.06139944130001
  0
TEXT
  8
_0-0_0
 62
    7
 10
219.38150982600001
 20
235.38223276740001
 40
3.5
 41
0.6999999999999999
 50
90
  1
520
  0
ENDBLK
  0
BLOCK
  2
-012-_D_11
 70
   64
 10
0
 20
0
 30
0
  0
INSERT
  2
-000-_DOT
  8
_0-0_0
 10
268.35213790260002
 20
209.10120674609999
 41
1
 42
1
 50
90
  0
INSERT
  2
-000-_DOT
  8
_0-0_0
 10
268.35213790260002
 20
202.5012067461
 41
1
 42
1
 50
270
  0
LINE
  8
_0-0_0
  6
CONTINUOUS
 62
    7
 10
258.23063790259999
 20
209.10120674609999
 11
269.35213790260002
 21
209.10120674609999
  0
LINE
  8
_0-0_0
  6
CONTINUOUS
 62
    7
 10
257.69063790259997
 20
202.5012067461
 11
269.35213790260002
 21
202.5012067461
  0
LINE
  8
_0-0_0
  6
CONTINUOUS
 62
    7
 10
268.35213790260002
 20
209.10120674609999
 11
268.35213790260002
 21
202.5012067461
  0
LINE
  8
_0-0_0
  6
CONTINUOUS
 62
    7
 10
268.35213790260002
 20
202.5012067461
 11
268.35213790260002
 21
191.80328982859999
  0
TEXT
  8
_0-0_0
 62
    7
 10
266.54170079850002
 20
191.80328982859999
 40
3.5
 41
0.6999999999999999
 50
90
  1
330
  0
ENDBLK
  0
ENDSEC
  0
SECTION
  2
ENTITIES
  0
LINE
  8
_0-0_0
  6
CONTINUOUS
 62
    7
 10
68.655379454399991
 20
243.56140072570003
 11
68.655379454399991
 21
248.06139944130001
  0
LINE
  8
_0-0_0
  6
CONTINUOUS
 62
    7
 10
4.0999999999999943
 20
191.73333333330001
 11
415.89999999999998
 21
191.73333333330001
  0
LINE
  8
_0-0_0
  6
CONTINUOUS
 62
    7
 10
415.89999999999998
 20
105.2666666667
 11
4.0999999999999943
 21
105.2666666667
  0
LINE
  8
_0-0_0
  6
CONTINUOUS
 62
    7
 10
141.36666666669998
 20
278.19999999999999
 11
141.36666666669998
 21
13.981454266900016
  0
LINE
  8
_0-0_0
  6
CONTINUOUS
 62
    7
 10
278.63333333330002
 20
18.800000000000011
 11
278.63333333330002
 21
278.19999999999999
  0
LINE
  8
_0-0_0
  6
CONTINUOUS
 62
    7
 10
4.0999999999999943
 20
268.19999999999999
 11
415.89999999999998
 21
268.19999999999999
  0
LINE
  8
_0-0_0
  6
CONTINUOUS
 62
    7
 10
4.0999999999999943
 20
181.73333333330001
 11
415.89999999999998
 21
181.73333333330001
  0
LINE
  8
_0-0_0
  6
CONTINUOUS
 62
    7
 10
4.0999999999999943
 20
95.266666666700004
 11
415.89999999999998
 21
95.266666666700004
  0
LINE
  8
_0-0_0
  6
CONTINUOUS
 62
    7
 10
4.0999999999999943
 20
18.800000000000011
 11
4.0999999999999943
 21
278.19999999999999
  0
LINE
  8
_0-0_0
  6
CONTINUOUS
 62
    7
 10
4.0999999999999943
 20
278.19999999999999
 11
415.89999999999998
 21
278.19999999999999
  0
LINE
  8
_0-0_0
  6
CONTINUOUS
 62
    7
 10
415.89999999999998
 20
278.19999999999999
 11
415.89999999999998
 21
18.800000000000011
  0
LINE
  8
_0-0_0
  6
CONTINUOUS
 62
    7
 10
415.89999999999998
 20
18.800000000000011
 11
4.0999999999999943
 21
18.800000000000011
  0
LINE
  8
_0-0_0
  6
CONTINUOUS
 62
    7
 10
-0.9010000000000104
 20
148.5
 11
4.1009999999999991
 21
148.5
  0
LINE
  8
_0-0_0
  6
CONTINUOUS
 62
    7
 10
210
 20
283.20100000000002
 11
210
 21
278.19900000000001
  0
LINE
  8
_0-0_0
  6
CONTINUOUS
 62
    7
 10
420.90099999999995
 20
148.5
 11
415.899
 21
148.5
  0
LINE
  8
_0-0_0
  6
CONTINUOUS
 62
    7
 10
210
 20
13.799000000000007
 11
210
 21
18.801000000000016
  0
LINE
  8
_0-0_0
  6
CONTINUOUS
 62
    7
 10
4.0999999999999943
 20
105.2666666667
 11
-0.9000000000000056
 21
105.2666666667
  0
LINE
  8
_0-0_0
  6
CONTINUOUS
 62
    7
 10
415.89999999999998
 20
105.2666666667
 11
420.89999999999998
 21
105.2666666667
  0
LINE
  8
_0-0_0
  6
CONTINUOUS
 62
    7
 10
4.0999999999999943
 20
191.73333333330001
 11
-0.9000000000000056
 21
191.73333333330001
  0
LINE
  8
_0-0_0
  6
CONTINUOUS
 62
    7
 10
415.89999999999998
 20
191.73333333330001
 11
420.89999999999998
 21
191.73333333330001
  0
LINE
  8
_0-0_0
  6
CONTINUOUS
 62
    7
 10
141.36666666669998
 20
278.19999999999999
 11
141.36666666669998
 21
283.19999999999999
  0
LINE
  8
_0-0_0
  6
CONTINUOUS
 62
    7
 10
141.36666666669998
 20
18.800000000000011
 11
141.36666666669998
 21
13.800000000000011
  0
LINE
  8
_0-0_0
  6
CONTINUOUS
 62
    7
 10
278.63333333330002
 20
278.19999999999999
 11
278.63333333330002
 21
283.19999999999999
  0
LINE
  8
_0-0_0
  6
CONTINUOUS
 62
    7
 10
278.63333333330002
 20
18.800000000000011
 11
278.63333333330002
 21
13.800000000000011
  0
TEXT
  8
_0-0_0
 62
    7
 10
14.9256129332
 20
272.25736764359999
 40
4.2333333333000001
 41
0.6999999999999999
 50
0
  1
MT W930×D930×H210
  0
TEXT
  8
_0-0_0
 62
    7
 10
152.203656972
 20
272.25736764359999
 40
4.2333333333000001
 41
0.6999999999999999
 50
0
  1
MT W930×D930×H330
  0
TEXT
  8
_0-0_0
 62
    7
 10
289.8109037442
 20
272.25736764359999
 40
4.2333333333000001
 41
0.6999999999999999
 50
0
  1
MT W1590×D520×H210
  0
TEXT
  8
_0-0_0
 62
    7
 10
14.9256129332
 20
186.193721455
 40
4.2333333333000001
 41
0.6999999999999999
 50
0
  1
MT W1590×D520×H330
  0
ARC
  8
_0-0_0
  6
CONTINUOUS
 62
    7
 10
331.08377221989997
 20
212.52120674610001
 40
0.0200000000000386
 50
270
 51
0
  0
ARC
  8
_0-0_0
  6
CONTINUOUS
 62
    7
 10
330.8037722199
 20
212.52120674610001
 40
0.0200000000000386
 50
180
 51
270
  0
LINE
  8
_0-0_0
  6
CONTINUOUS
 62
    7
 10
331.10377221989995
 20
212.52120674610001
 11
331.10377221989995
 21
212.64120674610001
  0
LINE
  8
_0-0_0
  6
CONTINUOUS
 62
    7
 10
330.78377221990002
 20
212.64120674610001
 11
330.78377221990002
 21
212.52120674610001
  0
ARC
  8
_0-0_0
  6
CONTINUOUS
 62
    7
 10
318.48377221989995
 20
212.52120674610001
 40
0.0200000000000386
 50
270
 51
0
  0
ARC
  8
_0-0_0
  6
CONTINUOUS
 62
    7
 10
318.20377221989997
 20
212.52120674610001
 40
0.0200000000000386
 50
180
 51
270
  0
LINE
  8
_0-0_0
  6
CONTINUOUS
 62
    7
 10
318.50377221990004
 20
212.52120674610001
 11
318.50377221990004
 21
212.64120674610001
  0
LINE
  8
_0-0_0
  6
CONTINUOUS
 62
    7
 10
318.18377221989999
 20
212.64120674610001
 11
318.18377221989999
 21
212.52120674610001
  0
LINE
  8
_0-0_0
  6
CONTINUOUS
 62
    7
 10
331.10277221989998
 20
212.64120674610001
 11
331.10277221989998
 21
216.00120674610002
  0
LINE
  8
_0-0_0
  6
CONTINUOUS
 62
    7
 10
330.78477221989999
 20
215.36120674610001
 11
330.78477221989999
 21
212.64120674610001
  0
LINE
  8
_0-0_0
  6
CONTINUOUS
 62
    7
 10
315.70782370619997
 20
216.61601078520002
 11
315.63098901579997
 21
216.59170983700002
  0
LINE
  8
_0-0_0
  6
CONTINUOUS
 62
    7
 10
315.63098901579997
 20
216.59170983700002
 11
315.56441141539995
 21
216.56511785260003
  0
LINE
  8
_0-0_0
  6
CONTINUOUS
 62
    7
 10
315.56441141539995
 20
216.56511785260003
 11
315.50788228529996
 21
216.536788054
  0
LINE
  8
_0-0_0
  6
CONTINUOUS
 62
    7
 10
315.50788228529996
 20
216.536788054
 11
315.46104303499999
 21
216.50675313740001
  0
LINE
  8
_0-0_0
  6
CONTINUOUS
 62
    7
 10
315.46104303499999
 20
216.50675313740001
 11
315.42331858579996
 21
216.47559130330001
  0
LINE
  8
_0-0_0
  6
CONTINUOUS
 62
    7
 10
315.42331858579996
 20
216.47559130330001
 11
315.3940678944
 21
216.44414179630002
  0
LINE
  8
_0-0_0
  6
CONTINUOUS
 62
    7
 10
315.3940678944
 20
216.44414179630002
 11
315.37257691549996
 21
216.4103858663
  0
LINE
  8
_0-0_0
  6
CONTINUOUS
 62
    7
 10
315.37257691549996
 20
216.4103858663
 11
315.36037524699998
 21
216.3744656131
  0
LINE
  8
_0-0_0
  6
CONTINUOUS
 62
    7
 10
315.36037524699998
 20
216.3744656131
 11
315.35865821369998
 21
216.3396543355
  0
LINE
  8
_0-0_0
  6
CONTINUOUS
 62
    7
 10
315.35865821369998
 20
216.3396543355
 11
315.36478076389994
 21
216.31094555230001
  0
LINE
  8
_0-0_0
  6
CONTINUOUS
 62
    7
 10
315.36478076389994
 20
216.31094555230001
 11
315.36982719670004
 21
216.29762979720002
  0
LINE
  8
_0-0_0
  6
CONTINUOUS
 62
    7
 10
315.36982719670004
 20
216.29762979720002
 11
315.37763864980002
 21
216.28138092750001
  0
LINE
  8
_0-0_0
  6
CONTINUOUS
 62
    7
 10
315.37763864980002
 20
216.28138092750001
 11
315.40465507229999
 21
216.2428305116
  0
LINE
  8
_0-0_0
  6
CONTINUOUS
 62
    7
 10
315.40465507229999
 20
216.2428305116
 11
315.45012519080001
 21
216.20105427980002
  0
LINE
  8
_0-0_0
  6
CONTINUOUS
 62
    7
 10
315.45012519080001
 20
216.20105427980002
 11
315.51572220389994
 21
216.15990121930002
  0
LINE
  8
_0-0_0
  6
CONTINUOUS
 62
    7
 10
315.51572220389994
 20
216.15990121930002
 11
315.60178078759998
 21
216.1212073266
  0
LINE
  8
_0-0_0
  6
CONTINUOUS
 62
    7
 10
315.60178078759998
 20
216.1212073266
 11
315.70771464380005
 21
216.08625622420001
  0
LINE
  8
_0-0_0
  6
CONTINUOUS
 62
    7
 10
333.57982979600001
 20
216.08625622420001
 11
333.67994475599994
 21
216.119287754
  0
LINE
  8
_0-0_0
  6
CONTINUOUS
 62
    7
 10
333.67994475599994
 20
216.119287754
 11
333.76190355480003
 21
216.1560728101
  0
LINE
  8
_0-0_0
  6
CONTINUOUS
 62
    7
 10
333.76190355480003
 20
216.1560728101
 11
333.82648252729996
 21
216.195744222
  0
LINE
  8
_0-0_0
  6
CONTINUOUS
 62
    7
 10
333.82648252729996
 20
216.195744222
 11
333.86424459759996
 21
216.22683514420001
  0
LINE
  8
_0-0_0
  6
CONTINUOUS
 62
    7
 10
333.86424459759996
 20
216.22683514420001
 11
333.8934873664
 21
216.25829575340001
  0
LINE
  8
_0-0_0
  6
CONTINUOUS
 62
    7
 10
333.8934873664
 20
216.25829575340001
 11
333.9149783954
 21
216.29205048540001
  0
LINE
  8
_0-0_0
  6
CONTINUOUS
 62
    7
 10
333.9149783954
 20
216.29205048540001
 11
333.92717392739996
 21
216.32797515270002
  0
LINE
  8
_0-0_0
  6
CONTINUOUS
 62
    7
 10
333.92717392739996
 20
216.32797515270002
 11
333.92888356430001
 21
216.36278769660001
  0
LINE
  8
_0-0_0
  6
CONTINUOUS
 62
    7
 10
333.92888356430001
 20
216.36278769660001
 11
333.92275458689994
 21
216.3914980493
  0
LINE
  8
_0-0_0
  6
CONTINUOUS
 62
    7
 10
333.92275458689994
 20
216.3914980493
 11
333.91770581000003
 21
216.40481000600002
  0
LINE
  8
_0-0_0
  6
CONTINUOUS
 62
    7
 10
333.91770581000003
 20
216.40481000600002
 11
333.90989257850003
 21
216.4210554066
  0
LINE
  8
_0-0_0
  6
CONTINUOUS
 62
    7
 10
333.90989257850003
 20
216.4210554066
 11
333.88287382110002
 21
216.459607003
  0
LINE
  8
_0-0_0
  6
CONTINUOUS
 62
    7
 10
333.88287382110002
 20
216.459607003
 11
333.83742114309996
 21
216.50142427750001
  0
LINE
  8
_0-0_0
  6
CONTINUOUS
 62
    7
 10
333.83742114309996
 20
216.50142427750001
 11
333.7718332055
 21
216.54260501920001
  0
LINE
  8
_0-0_0
  6
CONTINUOUS
 62
    7
 10
333.7718332055
 20
216.54260501920001
 11
333.68571165959997
 21
216.58117719830003
  0
LINE
  8
_0-0_0
  6
CONTINUOUS
 62
    7
 10
333.68571165959997
 20
216.58117719830003
 11
333.57972073359997
 21
216.61601078520002
  0
LINE
  8
_0-0_0
  6
CONTINUOUS
 62
    7
 10
318.50277221989995
 20
212.64120674610001
 11
318.50277221989995
 21
215.36120674610001
  0
LINE
  8
_0-0_0
  6
CONTINUOUS
 62
    7
 10
318.18477221989997
 20
216.00120674610002
 11
318.18477221989997
 21
212.64120674610001
  0
LINE
  8
_0-0_0
  6
CONTINUOUS
 62
    7
 10
331.00398684109996
 20
212.50120674610002
 11
330.8037722199
 21
212.50120674610002
  0
LINE
  8
_0-0_0
  6
CONTINUOUS
 62
    7
 10
331.08377221989997
 20
212.50120674610002
 11
331.00398684109996
 21
212.50120674610002
  0
LINE
  8
_0-0_0
  6
CONTINUOUS
 62
    7
 10
331.01258892989995
 20
212.64120674610001
 11
330.78377221990002
 21
212.64120674610001
  0
LINE
  8
_0-0_0
  6
CONTINUOUS
 62
    7
 10
331.10377221989995
 20
212.64120674610001
 11
331.01258892989995
 21
212.64120674610001
  0
LINE
  8
_0-0_0
  6
CONTINUOUS
 62
    7
 10
318.48377221989995
 20
212.50120674610002
 11
318.20377221989997
 21
212.50120674610002
  0
LINE
  8
_0-0_0
  6
CONTINUOUS
 62
    7
 10
318.50377221990004
 20
212.64120674610001
 11
318.18377221989999
 21
212.64120674610001
  0
LINE
  8
_0-0_0
  6
CONTINUOUS
 62
    7
 10
332.82377221989998
 20
216.70120674610001
 11
332.90057986780005
 21
216.69601146240001
  0
LINE
  8
_0-0_0
  6
CONTINUOUS
 62
    7
 10
332.90057986780005
 20
216.69601146240001
 11
332.97717612999998
 21
216.6793385094
  0
LINE
  8
_0-0_0
  6
CONTINUOUS
 62
    7
 10
332.97717612999998
 20
216.6793385094
 11
333.05318751539994
 21
216.64819149070001
  0
LINE
  8
_0-0_0
  6
CONTINUOUS
 62
    7
 10
333.05318751539994
 20
216.64819149070001
 11
333.10937993560003
 21
216.612550594
  0
LINE
  8
_0-0_0
  6
CONTINUOUS
 62
    7
 10
333.10937993560003
 20
216.612550594
 11
333.1639827926
 21
216.56122730800001
  0
LINE
  8
_0-0_0
  6
CONTINUOUS
 62
    7
 10
333.1639827926
 20
216.56122730800001
 11
333.19008127680002
 21
216.5270728399
  0
LINE
  8
_0-0_0
  6
CONTINUOUS
 62
    7
 10
333.19008127680002
 20
216.5270728399
 11
333.21433426800002
 21
216.48362520470002
  0
LINE
  8
_0-0_0
  6
CONTINUOUS
 62
    7
 10
333.21433426800002
 20
216.48362520470002
 11
333.22520502379996
 21
216.4571579338
  0
LINE
  8
_0-0_0
  6
CONTINUOUS
 62
    7
 10
333.22520502379996
 20
216.4571579338
 11
333.23450686900003
 21
216.426390134
  0
LINE
  8
_0-0_0
  6
CONTINUOUS
 62
    7
 10
333.23450686900003
 20
216.426390134
 11
333.24121556479997
 21
216.39078008590002
  0
LINE
  8
_0-0_0
  6
CONTINUOUS
 62
    7
 10
333.24121556479997
 20
216.39078008590002
 11
333.24377221919997
 21
216.3512272113
  0
LINE
  8
_0-0_0
  6
CONTINUOUS
 62
    7
 10
333.24377221919997
 20
216.3512272113
 11
333.24122027169994
 21
216.3116726481
  0
LINE
  8
_0-0_0
  6
CONTINUOUS
 62
    7
 10
333.24122027169994
 20
216.3116726481
 11
333.23451431729995
 21
216.2760557215
  0
LINE
  8
_0-0_0
  6
CONTINUOUS
 62
    7
 10
333.23451431729995
 20
216.2760557215
 11
333.22521281490003
 21
216.24528728370001
  0
LINE
  8
_0-0_0
  6
CONTINUOUS
 62
    7
 10
333.22521281490003
 20
216.24528728370001
 11
333.21434420330002
 21
216.2188102961
  0
LINE
  8
_0-0_0
  6
CONTINUOUS
 62
    7
 10
333.21434420330002
 20
216.2188102961
 11
333.19006079619999
 21
216.17549205580002
  0
LINE
  8
_0-0_0
  6
CONTINUOUS
 62
    7
 10
333.19006079619999
 20
216.17549205580002
 11
333.16398586799994
 21
216.1411913661
  0
LINE
  8
_0-0_0
  6
CONTINUOUS
 62
    7
 10
333.16398586799994
 20
216.1411913661
 11
333.10940205329996
 21
216.08969500110001
  0
LINE
  8
_0-0_0
  6
CONTINUOUS
 62
    7
 10
333.10940205329996
 20
216.08969500110001
 11
333.05319415010001
 21
216.0542249401
  0
LINE
  8
_0-0_0
  6
CONTINUOUS
 62
    7
 10
333.05319415010001
 20
216.0542249401
 11
332.97718031689999
 21
216.0230811767
  0
LINE
  8
_0-0_0
  6
CONTINUOUS
 62
    7
 10
332.97718031689999
 20
216.0230811767
 11
332.90058208359994
 21
216.00640109070002
  0
LINE
  8
_0-0_0
  6
CONTINUOUS
 62
    7
 10
332.90058208359994
 20
216.00640109070002
 11
332.82377221989998
 21
216.00120674610002
  0
LINE
  8
_0-0_0
  6
CONTINUOUS
 62
    7
 10
332.82377471480004
 20
216.00120674610002
 11
324.64377221990003
 21
216.00120674610002
  0
LINE
  8
_0-0_0
  6
CONTINUOUS
 62
    7
 10
332.82377471469999
 20
216.70120674610001
 11
324.64377221990003
 21
216.70120674610001
  0
LINE
  8
_0-0_0
  6
CONTINUOUS
 62
    7
 10
316.46376972500002
 20
216.00120674610002
 11
324.64377221990003
 21
216.00120674610002
  0
LINE
  8
_0-0_0
  6
CONTINUOUS
 62
    7
 10
316.46377221989997
 20
216.70120674610001
 11
316.38696457189997
 21
216.69601146240001
  0
LINE
  8
_0-0_0
  6
CONTINUOUS
 62
    7
 10
316.38696457189997
 20
216.69601146240001
 11
316.31036830970004
 21
216.6793385094
  0
LINE
  8
_0-0_0
  6
CONTINUOUS
 62
    7
 10
316.31036830970004
 20
216.6793385094
 11
316.23435692429996
 21
216.64819149070001
  0
LINE
  8
_0-0_0
  6
CONTINUOUS
 62
    7
 10
316.23435692429996
 20
216.64819149070001
 11
316.17816450420003
 21
216.612550594
  0
LINE
  8
_0-0_0
  6
CONTINUOUS
 62
    7
 10
316.17816450420003
 20
216.612550594
 11
316.12356164719995
 21
216.56122730800001
  0
LINE
  8
_0-0_0
  6
CONTINUOUS
 62
    7
 10
316.12356164719995
 20
216.56122730800001
 11
316.09746316300004
 21
216.5270728399
  0
LINE
  8
_0-0_0
  6
CONTINUOUS
 62
    7
 10
316.09746316300004
 20
216.5270728399
 11
316.07321017180004
 21
216.48362520470002
  0
LINE
  8
_0-0_0
  6
CONTINUOUS
 62
    7
 10
316.07321017180004
 20
216.48362520470002
 11
316.06233941589994
 21
216.4571579338
  0
LINE
  8
_0-0_0
  6
CONTINUOUS
 62
    7
 10
316.06233941589994
 20
216.4571579338
 11
316.05303757080003
 21
216.426390134
  0
LINE
  8
_0-0_0
  6
CONTINUOUS
 62
    7
 10
316.05303757080003
 20
216.426390134
 11
316.04632887499997
 21
216.39078008590002
  0
LINE
  8
_0-0_0
  6
CONTINUOUS
 62
    7
 10
316.04632887499997
 20
216.39078008590002
 11
316.04377222059998
 21
216.3512272113
  0
LINE
  8
_0-0_0
  6
CONTINUOUS
 62
    7
 10
316.04377222059998
 20
216.3512272113
 11
316.04632416799996
 21
216.3116726481
  0
LINE
  8
_0-0_0
  6
CONTINUOUS
 62
    7
 10
316.04632416799996
 20
216.3116726481
 11
316.05303012249999
 21
216.2760557215
  0
LINE
  8
_0-0_0
  6
CONTINUOUS
 62
    7
 10
316.05303012249999
 20
216.2760557215
 11
316.06233162490003
 21
216.24528728370001
  0
LINE
  8
_0-0_0
  6
CONTINUOUS
 62
    7
 10
316.06233162490003
 20
216.24528728370001
 11
316.07320023650004
 21
216.2188102961
  0
LINE
  8
_0-0_0
  6
CONTINUOUS
 62
    7
 10
316.07320023650004
 20
216.2188102961
 11
316.09748364350003
 21
216.17549205580002
  0
LINE
  8
_0-0_0
  6
CONTINUOUS
 62
    7
 10
316.09748364350003
 20
216.17549205580002
 11
316.1235585718
 21
216.1411913661
  0
LINE
  8
_0-0_0
  6
CONTINUOUS
 62
    7
 10
316.1235585718
 20
216.1411913661
 11
316.17814238639994
 21
216.08969500110001
  0
LINE
  8
_0-0_0
  6
CONTINUOUS
 62
    7
 10
316.17814238639994
 20
216.08969500110001
 11
316.23435028970005
 21
216.0542249401
  0
LINE
  8
_0-0_0
  6
CONTINUOUS
 62
    7
 10
316.23435028970005
 20
216.0542249401
 11
316.31036412280002
 21
216.0230811767
  0
LINE
  8
_0-0_0
  6
CONTINUOUS
 62
    7
 10
316.31036412280002
 20
216.0230811767
 11
316.3869623562
 21
216.00640109070002
  0
LINE
  8
_0-0_0
  6
CONTINUOUS
 62
    7
 10
316.3869623562
 20
216.00640109070002
 11
316.46377221989997
 21
216.00120674610002
  0
LINE
  8
_0-0_0
  6
CONTINUOUS
 62
    7
 10
316.46376972500002
 20
216.70120674610001
 11
324.64377221990003
 21
216.70120674610001
  0
LINE
  8
_0-0_0
  6
CONTINUOUS
 62
    7
 10
316.44377221989998
 20
216.70120674610001
 11
316.46377221989997
 21
216.70120674610001
  0
LINE
  8
_0-0_0
  6
CONTINUOUS
 62
    7
 10
316.46377221989997
 20
216.00120674610002
 11
316.44377221989998
 21
216.00120674610002
  0
ARC
  8
_0-0_0
  6
CONTINUOUS
 62
    7
 10
316.39119556510002
 20
213.9508982024
 40
2.7508110422807759
 50
88.90483067880001
 51
104.3843312823
  0
ARC
  8
_0-0_0
  6
CONTINUOUS
 62
    7
 10
316.39205760740003
 20
218.76429210160001
 40
2.7635692650855588
 50
255.65756774569996
 51
271.07223728000002
  0
LINE
  8
_0-0_0
  6
CONTINUOUS
 62
    7
 10
332.84377221989996
 20
216.00120674610002
 11
332.82377471480004
 21
216.00120674610002
  0
LINE
  8
_0-0_0
  6
CONTINUOUS
 62
    7
 10
332.84377221989996
 20
216.70120674610001
 11
332.82377471469999
 21
216.70120674610001
  0
ARC
  8
_0-0_0
  6
CONTINUOUS
 62
    7
 10
332.89632279509999
 20
213.95057470420002
 40
2.7511339831707708
 50
75.612018769499997
 51
91.094497511599997
  0
ARC
  8
_0-0_0
  6
CONTINUOUS
 62
    7
 10
332.89551076390001
 20
218.7639931855
 40
2.7632708492544542
 50
268.92715061029992
 51
284.33916712949997
  0
LINE
  8
_0-0_0
  6
CONTINUOUS
 62
    7
 10
318.49101691420003
 20
215.36120674610001
 11
318.49101691420003
 21
216.00120674610002
  0
LINE
  8
_0-0_0
  6
CONTINUOUS
 62
    7
 10
330.79652752560003
 20
215.36120674610001
 11
330.79652752560003
 21
216.00120674610002
  0
LINE
  8
_0-0_0
  6
CONTINUOUS
 62
    7
 10
318.49101691420003
 20
215.36120674610001
 11
330.79652752560003
 21
215.36120674610001
  0
POINT
  8
_0-0_0
 62
    7
 10
315.34378241820002
 20
216.35272191110002
  0
POINT
  8
_0-0_0
 62
    7
 10
333.94375777810001
 20
216.3527723567
  0
INSERT
  2
-001-_D
  8
_0-0_0
 10
-5.9000000000000057
 20
8.8000000000000114
 41
1
 42
1
 50
0
  0
LINE
  8
_0-0_0
  6
CONTINUOUS
 62
    7
 10
333.24377093550004
 20
257.36139944130002
 11
324.64377221990003
 21
257.36139944130002
  0
LINE
  8
_0-0_0
  6
CONTINUOUS
 62
    7
 10
324.64377221990003
 20
257.36139944130002
 11
316.04377350430002
 21
257.36139944130002
  0
LINE
  8
_0-0_0
  6
CONTINUOUS
 62
    7
 10
315.34377221989996
 20
256.66139815690002
 11
315.34377221989996
 21
248.06139944130001
  0
LINE
  8
_0-0_0
  6
CONTINUOUS
 62
    7
 10
333.94377221989998
 20
248.06139944130001
 11
333.94377221989998
 21
256.66139815690002
  0
LINE
  8
_0-0_0
  6
CONTINUOUS
 62
    7
 10
333.94377221989998
 20
239.4614007257
 11
333.94377221989998
 21
248.06139944130001
  0
LINE
  8
_0-0_0
  6
CONTINUOUS
 62
    7
 10
315.34377221989996
 20
248.06139944130001
 11
315.34377221989996
 21
239.4614007257
  0
LINE
  8
_0-0_0
  6
CONTINUOUS
 62
    7
 10
324.64377221990003
 20
238.7613994413
 11
333.24377093550004
 21
238.7613994413
  0
LINE
  8
_0-0_0
  6
CONTINUOUS
 62
    7
 10
316.04377350430002
 20
238.7613994413
 11
324.64377221990003
 21
238.7613994413
  0
ARC
  8
_0-0_0
  6
CONTINUOUS
 62
    7
 10
333.24391015100002
 20
256.66153737249999
 40
0.6998620824253628
 50
359.98870795670001
 51
90.011292043299974
  0
ARC
  8
_0-0_0
  6
CONTINUOUS
 62
    7
 10
316.04363428869999
 20
256.66153737249999
 40
0.6998620824251924
 50
89.988707956699997
 51
180.01129204329999
  0
ARC
  8
_0-0_0
  6
CONTINUOUS
 62
    7
 10
333.24391015100002
 20
239.46126151020002
 40
0.6998620824253629
 50
269.98870795670001
 51
0.0112920432999759
  0
ARC
  8
_0-0_0
  6
CONTINUOUS
 62
    7
 10
316.04363428869999
 20
239.46126151020002
 40
0.6998620824252491
 50
179.98870795670001
 51
270.01129204329999
  0
INSERT
  2
-002-_D_1
  8
_0-0_0
 10
-5.9000000000000057
 20
8.8000000000000114
 41
1
 42
1
 50
0
  0
LINE
  8
_0-0_0
  6
CONTINUOUS
 62
    7
 10
384.80749013579998
 20
212.52120674610001
 11
384.80749013579998
 21
212.64120674610001
  0
LINE
  8
_0-0_0
  6
CONTINUOUS
 62
    7
 10
384.48749013580004
 20
212.64120674610001
 11
384.48749013580004
 21
212.52120674610001
  0
ARC
  8
_0-0_0
  6
CONTINUOUS
 62
    7
 10
384.7874901358
 20
212.52120674610001
 40
0.0200000000000386
 50
270
 51
0
  0
ARC
  8
_0-0_0
  6
CONTINUOUS
 62
    7
 10
384.50749013580003
 20
212.52120674610001
 40
0.0200000000000386
 50
180
 51
270
  0
ARC
  8
_0-0_0
  6
CONTINUOUS
 62
    7
 10
372.18749013579998
 20
212.52120674610001
 40
0.0200000000000386
 50
270
 51
0
  0
ARC
  8
_0-0_0
  6
CONTINUOUS
 62
    7
 10
371.9074901358
 20
212.52120674610001
 40
0.0200000000000386
 50
180
 51
270
  0
LINE
  8
_0-0_0
  6
CONTINUOUS
 62
    7
 10
372.20749013579996
 20
212.52120674610001
 11
372.20749013579996
 21
212.64120674610001
  0
LINE
  8
_0-0_0
  6
CONTINUOUS
 62
    7
 10
371.88749013580002
 20
212.64120674610001
 11
371.88749013580002
 21
212.52120674610001
  0
LINE
  8
_0-0_0
  6
CONTINUOUS
 62
    7
 10
372.20649013579998
 20
212.64120674610001
 11
372.20649013579998
 21
215.36120674610001
  0
LINE
  8
_0-0_0
  6
CONTINUOUS
 62
    7
 10
371.8884901358
 20
216.00120674610002
 11
371.8884901358
 21
212.64120674610001
  0
LINE
  8
_0-0_0
  6
CONTINUOUS
 62
    7
 10
387.28354771190004
 20
216.08625622420001
 11
387.38366267200001
 21
216.119287754
  0
LINE
  8
_0-0_0
  6
CONTINUOUS
 62
    7
 10
387.38366267200001
 20
216.119287754
 11
387.46562147069994
 21
216.1560728101
  0
LINE
  8
_0-0_0
  6
CONTINUOUS
 62
    7
 10
387.46562147069994
 20
216.1560728101
 11
387.53020044330003
 21
216.195744222
  0
LINE
  8
_0-0_0
  6
CONTINUOUS
 62
    7
 10
387.53020044330003
 20
216.195744222
 11
387.56796251360004
 21
216.22683514420001
  0
LINE
  8
_0-0_0
  6
CONTINUOUS
 62
    7
 10
387.56796251360004
 20
216.22683514420001
 11
387.59720528230002
 21
216.25829575340001
  0
LINE
  8
_0-0_0
  6
CONTINUOUS
 62
    7
 10
387.59720528230002
 20
216.25829575340001
 11
387.61869631130003
 21
216.29205048540001
  0
LINE
  8
_0-0_0
  6
CONTINUOUS
 62
    7
 10
387.61869631130003
 20
216.29205048540001
 11
387.63089184340004
 21
216.32797515270002
  0
LINE
  8
_0-0_0
  6
CONTINUOUS
 62
    7
 10
387.63089184340004
 20
216.32797515270002
 11
387.63260148029997
 21
216.36278769660001
  0
LINE
  8
_0-0_0
  6
CONTINUOUS
 62
    7
 10
387.63260148029997
 20
216.36278769660001
 11
387.62647250290001
 21
216.3914980493
  0
LINE
  8
_0-0_0
  6
CONTINUOUS
 62
    7
 10
387.62647250290001
 20
216.3914980493
 11
387.62142372599999
 21
216.40481000600002
  0
LINE
  8
_0-0_0
  6
CONTINUOUS
 62
    7
 10
387.62142372599999
 20
216.40481000600002
 11
387.61361049439995
 21
216.4210554066
  0
LINE
  8
_0-0_0
  6
CONTINUOUS
 62
    7
 10
387.61361049439995
 20
216.4210554066
 11
387.58659173700005
 21
216.459607003
  0
LINE
  8
_0-0_0
  6
CONTINUOUS
 62
    7
 10
387.58659173700005
 20
216.459607003
 11
387.54113905910003
 21
216.50142427750001
  0
LINE
  8
_0-0_0
  6
CONTINUOUS
 62
    7
 10
387.54113905910003
 20
216.50142427750001
 11
387.47555112149996
 21
216.54260501920001
  0
LINE
  8
_0-0_0
  6
CONTINUOUS
 62
    7
 10
387.47555112149996
 20
216.54260501920001
 11
387.38942957560005
 21
216.58117719830003
  0
LINE
  8
_0-0_0
  6
CONTINUOUS
 62
    7
 10
387.38942957560005
 20
216.58117719830003
 11
387.28343864960004
 21
216.61601078520002
  0
LINE
  8
_0-0_0
  6
CONTINUOUS
 62
    7
 10
369.4115416221
 20
216.61601078520002
 11
369.3347069317
 21
216.59170983700002
  0
LINE
  8
_0-0_0
  6
CONTINUOUS
 62
    7
 10
369.3347069317
 20
216.59170983700002
 11
369.26812933140002
 21
216.56511785260003
  0
LINE
  8
_0-0_0
  6
CONTINUOUS
 62
    7
 10
369.26812933140002
 20
216.56511785260003
 11
369.21160020130003
 21
216.536788054
  0
LINE
  8
_0-0_0
  6
CONTINUOUS
 62
    7
 10
369.21160020130003
 20
216.536788054
 11
369.16476095090002
 21
216.50675313740001
  0
LINE
  8
_0-0_0
  6
CONTINUOUS
 62
    7
 10
369.16476095090002
 20
216.50675313740001
 11
369.12703650169999
 21
216.47559130330001
  0
LINE
  8
_0-0_0
  6
CONTINUOUS
 62
    7
 10
369.12703650169999
 20
216.47559130330001
 11
369.09778581030002
 21
216.44414179630002
  0
LINE
  8
_0-0_0
  6
CONTINUOUS
 62
    7
 10
369.09778581030002
 20
216.44414179630002
 11
369.07629483139999
 21
216.4103858663
  0
LINE
  8
_0-0_0
  6
CONTINUOUS
 62
    7
 10
369.07629483139999
 20
216.4103858663
 11
369.06409316290001
 21
216.3744656131
  0
LINE
  8
_0-0_0
  6
CONTINUOUS
 62
    7
 10
369.06409316290001
 20
216.3744656131
 11
369.06237612969994
 21
216.3396543355
  0
LINE
  8
_0-0_0
  6
CONTINUOUS
 62
    7
 10
369.06237612969994
 20
216.3396543355
 11
369.06849867990002
 21
216.31094555230001
  0
LINE
  8
_0-0_0
  6
CONTINUOUS
 62
    7
 10
369.06849867990002
 20
216.31094555230001
 11
369.0735451127
 21
216.29762979720002
  0
LINE
  8
_0-0_0
  6
CONTINUOUS
 62
    7
 10
369.0735451127
 20
216.29762979720002
 11
369.08135656579998
 21
216.28138092750001
  0
LINE
  8
_0-0_0
  6
CONTINUOUS
 62
    7
 10
369.08135656579998
 20
216.28138092750001
 11
369.10837298829995
 21
216.2428305116
  0
LINE
  8
_0-0_0
  6
CONTINUOUS
 62
    7
 10
369.10837298829995
 20
216.2428305116
 11
369.15384310679997
 21
216.20105427980002
  0
LINE
  8
_0-0_0
  6
CONTINUOUS
 62
    7
 10
369.15384310679997
 20
216.20105427980002
 11
369.21944011979997
 21
216.15990121930002
  0
LINE
  8
_0-0_0
  6
CONTINUOUS
 62
    7
 10
369.21944011979997
 20
216.15990121930002
 11
369.30549870350001
 21
216.1212073266
  0
LINE
  8
_0-0_0
  6
CONTINUOUS
 62
    7
 10
369.30549870350001
 20
216.1212073266
 11
369.41143255969996
 21
216.08625622420001
  0
LINE
  8
_0-0_0
  6
CONTINUOUS
 62
    7
 10
384.8064901358
 20
212.64120674610001
 11
384.8064901358
 21
216.00120674610002
  0
LINE
  8
_0-0_0
  6
CONTINUOUS
 62
    7
 10
384.48849013580002
 20
215.36120674610001
 11
384.48849013580002
 21
212.64120674610001
  0
LINE
  8
_0-0_0
  6
CONTINUOUS
 62
    7
 10
384.80749013579998
 20
212.64120674610001
 11
384.48749013580004
 21
212.64120674610001
  0
LINE
  8
_0-0_0
  6
CONTINUOUS
 62
    7
 10
384.7874901358
 20
212.50120674610002
 11
384.50749013580003
 21
212.50120674610002
  0
LINE
  8
_0-0_0
  6
CONTINUOUS
 62
    7
 10
371.92110105639995
 20
212.50120674610002
 11
371.9074901358
 21
212.50120674610002
  0
LINE
  8
_0-0_0
  6
CONTINUOUS
 62
    7
 10
372.18749013579998
 20
212.50120674610002
 11
371.92110105639995
 21
212.50120674610002
  0
LINE
  8
_0-0_0
  6
CONTINUOUS
 62
    7
 10
371.90304547369999
 20
212.64120674610001
 11
371.88749013580002
 21
212.64120674610001
  0
LINE
  8
_0-0_0
  6
CONTINUOUS
 62
    7
 10
372.20749013579996
 20
212.64120674610001
 11
371.90304547369999
 21
212.64120674610001
  0
LINE
  8
_0-0_0
  6
CONTINUOUS
 62
    7
 10
384.50024544149994
 20
216.00120674610002
 11
384.50024544149994
 21
215.36120674610001
  0
LINE
  8
_0-0_0
  6
CONTINUOUS
 62
    7
 10
384.50024544149994
 20
215.36120674610001
 11
372.19473483009995
 21
215.36120674610001
  0
LINE
  8
_0-0_0
  6
CONTINUOUS
 62
    7
 10
372.19473483009995
 20
216.00120674610002
 11
372.19473483009995
 21
215.36120674610001
  0
LINE
  8
_0-0_0
  6
CONTINUOUS
 62
    7
 10
378.34749013579994
 20
216.00120674610002
 11
386.52749013580001
 21
216.00120674610002
  0
LINE
  8
_0-0_0
  6
CONTINUOUS
 62
    7
 10
378.34749013579994
 20
216.70120674610001
 11
386.52749013580001
 21
216.70120674610001
  0
LINE
  8
_0-0_0
  6
CONTINUOUS
 62
    7
 10
386.52749013580001
 20
216.70120674610001
 11
386.60429778380001
 21
216.69601146240001
  0
LINE
  8
_0-0_0
  6
CONTINUOUS
 62
    7
 10
386.60429778380001
 20
216.69601146240001
 11
386.68089404600005
 21
216.6793385094
  0
LINE
  8
_0-0_0
  6
CONTINUOUS
 62
    7
 10
386.68089404600005
 20
216.6793385094
 11
386.75690543140001
 21
216.64819149070001
  0
LINE
  8
_0-0_0
  6
CONTINUOUS
 62
    7
 10
386.75690543140001
 20
216.64819149070001
 11
386.81309785149995
 21
216.612550594
  0
LINE
  8
_0-0_0
  6
CONTINUOUS
 62
    7
 10
386.81309785149995
 20
216.612550594
 11
386.86770070850002
 21
216.56122730800001
  0
LINE
  8
_0-0_0
  6
CONTINUOUS
 62
    7
 10
386.86770070850002
 20
216.56122730800001
 11
386.89379919279997
 21
216.5270728399
  0
LINE
  8
_0-0_0
  6
CONTINUOUS
 62
    7
 10
386.89379919279997
 20
216.5270728399
 11
386.91805218399998
 21
216.48362520470002
  0
LINE
  8
_0-0_0
  6
CONTINUOUS
 62
    7
 10
386.91805218399998
 20
216.48362520470002
 11
386.92892293980003
 21
216.4571579338
  0
LINE
  8
_0-0_0
  6
CONTINUOUS
 62
    7
 10
386.92892293980003
 20
216.4571579338
 11
386.93822478489994
 21
216.426390134
  0
LINE
  8
_0-0_0
  6
CONTINUOUS
 62
    7
 10
386.93822478489994
 20
216.426390134
 11
386.9449334807
 21
216.39078008590002
  0
LINE
  8
_0-0_0
  6
CONTINUOUS
 62
    7
 10
386.9449334807
 20
216.39078008590002
 11
386.9474901351
 21
216.3512272113
  0
LINE
  8
_0-0_0
  6
CONTINUOUS
 62
    7
 10
386.9474901351
 20
216.3512272113
 11
386.94493818770002
 21
216.3116726481
  0
LINE
  8
_0-0_0
  6
CONTINUOUS
 62
    7
 10
386.94493818770002
 20
216.3116726481
 11
386.93823223330003
 21
216.2760557215
  0
LINE
  8
_0-0_0
  6
CONTINUOUS
 62
    7
 10
386.93823223330003
 20
216.2760557215
 11
386.92893073079995
 21
216.24528728370001
  0
LINE
  8
_0-0_0
  6
CONTINUOUS
 62
    7
 10
386.92893073079995
 20
216.24528728370001
 11
386.91806211929998
 21
216.2188102961
  0
LINE
  8
_0-0_0
  6
CONTINUOUS
 62
    7
 10
386.91806211929998
 20
216.2188102961
 11
386.89377871219995
 21
216.17549205580002
  0
LINE
  8
_0-0_0
  6
CONTINUOUS
 62
    7
 10
386.89377871219995
 20
216.17549205580002
 11
386.86770378389997
 21
216.1411913661
  0
LINE
  8
_0-0_0
  6
CONTINUOUS
 62
    7
 10
386.86770378389997
 20
216.1411913661
 11
386.81311996930003
 21
216.08969500110001
  0
LINE
  8
_0-0_0
  6
CONTINUOUS
 62
    7
 10
386.81311996930003
 20
216.08969500110001
 11
386.75691206600004
 21
216.0542249401
  0
LINE
  8
_0-0_0
  6
CONTINUOUS
 62
    7
 10
386.75691206600004
 20
216.0542249401
 11
386.68089823289995
 21
216.0230811767
  0
LINE
  8
_0-0_0
  6
CONTINUOUS
 62
    7
 10
386.68089823289995
 20
216.0230811767
 11
386.60429999960002
 21
216.00640109070002
  0
LINE
  8
_0-0_0
  6
CONTINUOUS
 62
    7
 10
386.60429999960002
 20
216.00640109070002
 11
386.52749013580001
 21
216.00120674610002
  0
LINE
  8
_0-0_0
  6
CONTINUOUS
 62
    7
 10
378.34749013579994
 20
216.70120674610001
 11
370.16749013579999
 21
216.70120674610001
  0
LINE
  8
_0-0_0
  6
CONTINUOUS
 62
    7
 10
378.34749013579994
 20
216.00120674610002
 11
370.16749013579999
 21
216.00120674610002
  0
LINE
  8
_0-0_0
  6
CONTINUOUS
 62
    7
 10
370.16749013579999
 20
216.70120674610001
 11
370.09068248790004
 21
216.69601146240001
  0
LINE
  8
_0-0_0
  6
CONTINUOUS
 62
    7
 10
370.09068248790004
 20
216.69601146240001
 11
370.0140862257
 21
216.6793385094
  0
LINE
  8
_0-0_0
  6
CONTINUOUS
 62
    7
 10
370.0140862257
 20
216.6793385094
 11
369.93807484030003
 21
216.64819149070001
  0
LINE
  8
_0-0_0
  6
CONTINUOUS
 62
    7
 10
369.93807484030003
 20
216.64819149070001
 11
369.88188242009994
 21
216.612550594
  0
LINE
  8
_0-0_0
  6
CONTINUOUS
 62
    7
 10
369.88188242009994
 20
216.612550594
 11
369.82727956309998
 21
216.56122730800001
  0
LINE
  8
_0-0_0
  6
CONTINUOUS
 62
    7
 10
369.82727956309998
 20
216.56122730800001
 11
369.80118107889996
 21
216.5270728399
  0
LINE
  8
_0-0_0
  6
CONTINUOUS
 62
    7
 10
369.80118107889996
 20
216.5270728399
 11
369.77692808769996
 21
216.48362520470002
  0
LINE
  8
_0-0_0
  6
CONTINUOUS
 62
    7
 10
369.77692808769996
 20
216.48362520470002
 11
369.76605733190002
 21
216.4571579338
  0
LINE
  8
_0-0_0
  6
CONTINUOUS
 62
    7
 10
369.76605733190002
 20
216.4571579338
 11
369.75675548679999
 21
216.426390134
  0
LINE
  8
_0-0_0
  6
CONTINUOUS
 62
    7
 10
369.75675548679999
 20
216.426390134
 11
369.7500467909
 21
216.39078008590002
  0
LINE
  8
_0-0_0
  6
CONTINUOUS
 62
    7
 10
369.7500467909
 20
216.39078008590002
 11
369.74749013660005
 21
216.3512272113
  0
LINE
  8
_0-0_0
  6
CONTINUOUS
 62
    7
 10
369.74749013660005
 20
216.3512272113
 11
369.75004208400003
 21
216.3116726481
  0
LINE
  8
_0-0_0
  6
CONTINUOUS
 62
    7
 10
369.75004208400003
 20
216.3116726481
 11
369.75674803840002
 21
216.2760557215
  0
LINE
  8
_0-0_0
  6
CONTINUOUS
 62
    7
 10
369.75674803840002
 20
216.2760557215
 11
369.76604954079994
 21
216.24528728370001
  0
LINE
  8
_0-0_0
  6
CONTINUOUS
 62
    7
 10
369.76604954079994
 20
216.24528728370001
 11
369.77691815239996
 21
216.2188102961
  0
LINE
  8
_0-0_0
  6
CONTINUOUS
 62
    7
 10
369.77691815239996
 20
216.2188102961
 11
369.80120155949999
 21
216.17549205580002
  0
LINE
  8
_0-0_0
  6
CONTINUOUS
 62
    7
 10
369.80120155949999
 20
216.17549205580002
 11
369.82727648779996
 21
216.1411913661
  0
LINE
  8
_0-0_0
  6
CONTINUOUS
 62
    7
 10
369.82727648779996
 20
216.1411913661
 11
369.88186030240001
 21
216.08969500110001
  0
LINE
  8
_0-0_0
  6
CONTINUOUS
 62
    7
 10
369.88186030240001
 20
216.08969500110001
 11
369.93806820559996
 21
216.0542249401
  0
LINE
  8
_0-0_0
  6
CONTINUOUS
 62
    7
 10
369.93806820559996
 20
216.0542249401
 11
370.01408203879998
 21
216.0230811767
  0
LINE
  8
_0-0_0
  6
CONTINUOUS
 62
    7
 10
370.01408203879998
 20
216.0230811767
 11
370.09068027210003
 21
216.00640109070002
  0
LINE
  8
_0-0_0
  6
CONTINUOUS
 62
    7
 10
370.09068027210003
 20
216.00640109070002
 11
370.16749013579999
 21
216.00120674610002
  0
LINE
  8
_0-0_0
  6
CONTINUOUS
 62
    7
 10
386.52749013580001
 20
216.70120674610001
 11
386.54749013579999
 21
216.70120674610001
  0
ARC
  8
_0-0_0
  6
CONTINUOUS
 62
    7
 10
386.60004071109995
 20
213.95057470420002
 40
2.751133983173859
 50
75.612018769499997
 51
91.094497511599997
  0
ARC
  8
_0-0_0
  6
CONTINUOUS
 62
    7
 10
386.59922867980004
 20
218.7639931855
 40
2.763270849253316
 50
268.92715061029992
 51
284.33916712949997
  0
LINE
  8
_0-0_0
  6
CONTINUOUS
 62
    7
 10
386.52749013580001
 20
216.00120674610002
 11
386.54749013579999
 21
216.00120674610002
  0
ARC
  8
_0-0_0
  6
CONTINUOUS
 62
    7
 10
370.09491348109998
 20
213.9508982024
 40
2.7508110422826242
 50
88.90483067880001
 51
104.3843312823
  0
ARC
  8
_0-0_0
  6
CONTINUOUS
 62
    7
 10
370.09577552339999
 20
218.76429210160001
 40
2.7635692650865802
 50
255.65756774580001
 51
271.07223728000002
  0
LINE
  8
_0-0_0
  6
CONTINUOUS
 62
    7
 10
370.16749013579999
 20
216.70120674610001
 11
370.14749013580001
 21
216.70120674610001
  0
LINE
  8
_0-0_0
  6
CONTINUOUS
 62
    7
 10
370.16749013579999
 20
216.00120674610002
 11
370.14749013580001
 21
216.00120674610002
  0
INSERT
  2
-003-_D_2
  8
_0-0_0
 10
-5.9000000000000057
 20
8.8000000000000114
 41
1
 42
1
 50
0
  0
ARC
  8
_0-0_0
  6
CONTINUOUS
 62
    7
 10
59.195379454399983
 20
120.66754397120002
 40
0.019999999999996
 50
270
 51
0
  0
ARC
  8
_0-0_0
  6
CONTINUOUS
 62
    7
 10
58.915379454400011
 20
120.66754397120002
 40
0.019999999999996
 50
180
 51
270
  0
LINE
  8
_0-0_0
  6
CONTINUOUS
 62
    7
 10
59.215379454399994
 20
120.66754397120002
 11
59.215379454399994
 21
120.78754397120001
  0
LINE
  8
_0-0_0
  6
CONTINUOUS
 62
    7
 10
58.8953794544
 20
120.78754397120001
 11
58.8953794544
 21
120.66754397120002
  0
ARC
  8
_0-0_0
  6
CONTINUOUS
 62
    7
 10
46.595379454399989
 20
120.66754397120002
 40
0.019999999999996
 50
270
 51
0
  0
ARC
  8
_0-0_0
  6
CONTINUOUS
 62
    7
 10
46.315379454399988
 20
120.66754397120002
 40
0.019999999999996
 50
180
 51
270
  0
LINE
  8
_0-0_0
  6
CONTINUOUS
 62
    7
 10
46.615379454399999
 20
120.66754397120002
 11
46.615379454399999
 21
120.78754397120001
  0
LINE
  8
_0-0_0
  6
CONTINUOUS
 62
    7
 10
46.295379454400006
 20
120.78754397120001
 11
46.295379454400006
 21
120.66754397120002
  0
LINE
  8
_0-0_0
  6
CONTINUOUS
 62
    7
 10
59.214379454399989
 20
120.78754397120001
 11
59.214379454399989
 21
126.54754397120001
  0
LINE
  8
_0-0_0
  6
CONTINUOUS
 62
    7
 10
58.896379454400005
 20
125.90754397120001
 11
58.896379454400005
 21
120.78754397120001
  0
LINE
  8
_0-0_0
  6
CONTINUOUS
 62
    7
 10
43.8194309406
 20
127.16234801030001
 11
43.742596250299982
 21
127.13804706210001
  0
LINE
  8
_0-0_0
  6
CONTINUOUS
 62
    7
 10
43.742596250299982
 20
127.13804706210001
 11
43.676018649899987
 21
127.11145507770001
  0
LINE
  8
_0-0_0
  6
CONTINUOUS
 62
    7
 10
43.676018649899987
 20
127.11145507770001
 11
43.619489519799998
 21
127.08312527910002
  0
LINE
  8
_0-0_0
  6
CONTINUOUS
 62
    7
 10
43.619489519799998
 20
127.08312527910002
 11
43.572650269500002
 21
127.05309036250001
  0
LINE
  8
_0-0_0
  6
CONTINUOUS
 62
    7
 10
43.572650269500002
 20
127.05309036250001
 11
43.534925820300003
 21
127.02192852840001
  0
LINE
  8
_0-0_0
  6
CONTINUOUS
 62
    7
 10
43.534925820300003
 20
127.02192852840001
 11
43.505675128900009
 21
126.99047902140001
  0
LINE
  8
_0-0_0
  6
CONTINUOUS
 62
    7
 10
43.505675128900009
 20
126.99047902140001
 11
43.484184150000004
 21
126.95672309140001
  0
LINE
  8
_0-0_0
  6
CONTINUOUS
 62
    7
 10
43.484184150000004
 20
126.95672309140001
 11
43.471982481499992
 21
126.92080283820002
  0
LINE
  8
_0-0_0
  6
CONTINUOUS
 62
    7
 10
43.471982481499992
 20
126.92080283820002
 11
43.470265448199996
 21
126.8859915606
  0
LINE
  8
_0-0_0
  6
CONTINUOUS
 62
    7
 10
43.470265448199996
 20
126.8859915606
 11
43.476387998399986
 21
126.85728277740002
  0
LINE
  8
_0-0_0
  6
CONTINUOUS
 62
    7
 10
43.476387998399986
 20
126.85728277740002
 11
43.4814344312
 21
126.84396702230001
  0
LINE
  8
_0-0_0
  6
CONTINUOUS
 62
    7
 10
43.4814344312
 20
126.84396702230001
 11
43.489245884300004
 21
126.82771815260001
  0
LINE
  8
_0-0_0
  6
CONTINUOUS
 62
    7
 10
43.489245884300004
 20
126.82771815260001
 11
43.516262306800002
 21
126.78916773670001
  0
LINE
  8
_0-0_0
  6
CONTINUOUS
 62
    7
 10
43.516262306800002
 20
126.78916773670001
 11
43.561732425299994
 21
126.74739150490001
  0
LINE
  8
_0-0_0
  6
CONTINUOUS
 62
    7
 10
43.561732425299994
 20
126.74739150490001
 11
43.627329438400011
 21
126.70623844440001
  0
LINE
  8
_0-0_0
  6
CONTINUOUS
 62
    7
 10
43.627329438400011
 20
126.70623844440001
 11
43.713388022099991
 21
126.66754455170002
  0
LINE
  8
_0-0_0
  6
CONTINUOUS
 62
    7
 10
43.713388022099991
 20
126.66754455170002
 11
43.819321878300002
 21
126.63259344930002
  0
LINE
  8
_0-0_0
  6
CONTINUOUS
 62
    7
 10
61.691437030499998
 20
126.63259344930002
 11
61.791551990500011
 21
126.66562497910002
  0
LINE
  8
_0-0_0
  6
CONTINUOUS
 62
    7
 10
61.791551990500011
 20
126.66562497910002
 11
61.873510789299985
 21
126.70241003520002
  0
LINE
  8
_0-0_0
  6
CONTINUOUS
 62
    7
 10
61.873510789299985
 20
126.70241003520002
 11
61.938089761800001
 21
126.74208144710001
  0
LINE
  8
_0-0_0
  6
CONTINUOUS
 62
    7
 10
61.938089761800001
 20
126.74208144710001
 11
61.975851832099977
 21
126.77317236930001
  0
LINE
  8
_0-0_0
  6
CONTINUOUS
 62
    7
 10
61.975851832099977
 20
126.77317236930001
 11
62.005094600900009
 21
126.80463297850001
  0
LINE
  8
_0-0_0
  6
CONTINUOUS
 62
    7
 10
62.005094600900009
 20
126.80463297850001
 11
62.026585629900012
 21
126.83838771050002
  0
LINE
  8
_0-0_0
  6
CONTINUOUS
 62
    7
 10
62.026585629900012
 20
126.83838771050002
 11
62.038781161899976
 21
126.87431237780001
  0
LINE
  8
_0-0_0
  6
CONTINUOUS
 62
    7
 10
62.038781161899976
 20
126.87431237780001
 11
62.040490798799993
 21
126.90912492170001
  0
LINE
  8
_0-0_0
  6
CONTINUOUS
 62
    7
 10
62.040490798799993
 20
126.90912492170001
 11
62.034361821400012
 21
126.93783527440002
  0
LINE
  8
_0-0_0
  6
CONTINUOUS
 62
    7
 10
62.034361821400012
 20
126.93783527440002
 11
62.029313044499986
 21
126.95114723110001
  0
LINE
  8
_0-0_0
  6
CONTINUOUS
 62
    7
 10
62.029313044499986
 20
126.95114723110001
 11
62.021499812999991
 21
126.96739263170001
  0
LINE
  8
_0-0_0
  6
CONTINUOUS
 62
    7
 10
62.021499812999991
 20
126.96739263170001
 11
61.994481055599977
 21
127.00594422810001
  0
LINE
  8
_0-0_0
  6
CONTINUOUS
 62
    7
 10
61.994481055599977
 20
127.00594422810001
 11
61.949028377600001
 21
127.04776150260001
  0
LINE
  8
_0-0_0
  6
CONTINUOUS
 62
    7
 10
61.949028377600001
 20
127.04776150260001
 11
61.883440440000015
 21
127.08894224430001
  0
LINE
  8
_0-0_0
  6
CONTINUOUS
 62
    7
 10
61.883440440000015
 20
127.08894224430001
 11
61.797318894099988
 21
127.12751442340002
  0
LINE
  8
_0-0_0
  6
CONTINUOUS
 62
    7
 10
61.797318894099988
 20
127.12751442340002
 11
61.691327968099984
 21
127.16234801030001
  0
LINE
  8
_0-0_0
  6
CONTINUOUS
 62
    7
 10
46.614379454399995
 20
120.78754397120001
 11
46.614379454399995
 21
125.90754397120001
  0
LINE
  8
_0-0_0
  6
CONTINUOUS
 62
    7
 10
46.296379454399982
 20
126.54754397120001
 11
46.296379454399982
 21
120.78754397120001
  0
LINE
  8
_0-0_0
  6
CONTINUOUS
 62
    7
 10
59.115594075600001
 20
120.64754397120001
 11
58.915379454400011
 21
120.64754397120001
  0
LINE
  8
_0-0_0
  6
CONTINUOUS
 62
    7
 10
59.195379454399983
 20
120.64754397120001
 11
59.115594075600001
 21
120.64754397120001
  0
LINE
  8
_0-0_0
  6
CONTINUOUS
 62
    7
 10
59.124196164299974
 20
120.78754397120001
 11
58.8953794544
 21
120.78754397120001
  0
LINE
  8
_0-0_0
  6
CONTINUOUS
 62
    7
 10
59.215379454399994
 20
120.78754397120001
 11
59.124196164299974
 21
120.78754397120001
  0
LINE
  8
_0-0_0
  6
CONTINUOUS
 62
    7
 10
46.595379454399989
 20
120.64754397120001
 11
46.315379454399988
 21
120.64754397120001
  0
LINE
  8
_0-0_0
  6
CONTINUOUS
 62
    7
 10
46.615379454399999
 20
120.78754397120001
 11
46.295379454400006
 21
120.78754397120001
  0
LINE
  8
_0-0_0
  6
CONTINUOUS
 62
    7
 10
60.935379454399992
 20
127.24754397120002
 11
61.012187102300004
 21
127.24234868750001
  0
LINE
  8
_0-0_0
  6
CONTINUOUS
 62
    7
 10
61.012187102300004
 20
127.24234868750001
 11
61.088783364499989
 21
127.22567573450002
  0
LINE
  8
_0-0_0
  6
CONTINUOUS
 62
    7
 10
61.088783364499989
 20
127.22567573450002
 11
61.164794749900011
 21
127.19452871580002
  0
LINE
  8
_0-0_0
  6
CONTINUOUS
 62
    7
 10
61.164794749900011
 20
127.19452871580002
 11
61.220987170099988
 21
127.15888781900001
  0
LINE
  8
_0-0_0
  6
CONTINUOUS
 62
    7
 10
61.220987170099988
 20
127.15888781900001
 11
61.275590027100009
 21
127.10756453310002
  0
LINE
  8
_0-0_0
  6
CONTINUOUS
 62
    7
 10
61.275590027100009
 20
127.10756453310002
 11
61.3016885113
 21
127.073410065
  0
LINE
  8
_0-0_0
  6
CONTINUOUS
 62
    7
 10
61.3016885113
 20
127.073410065
 11
61.325941502500001
 21
127.02996242980001
  0
LINE
  8
_0-0_0
  6
CONTINUOUS
 62
    7
 10
61.325941502500001
 20
127.02996242980001
 11
61.3368122583
 21
127.00349515890001
  0
LINE
  8
_0-0_0
  6
CONTINUOUS
 62
    7
 10
61.3368122583
 20
127.00349515890001
 11
61.346114103399998
 21
126.97272735910001
  0
LINE
  8
_0-0_0
  6
CONTINUOUS
 62
    7
 10
61.346114103399998
 20
126.97272735910001
 11
61.352822799299986
 21
126.93711731100001
  0
LINE
  8
_0-0_0
  6
CONTINUOUS
 62
    7
 10
61.352822799299986
 20
126.93711731100001
 11
61.355379453599994
 21
126.89756443640002
  0
LINE
  8
_0-0_0
  6
CONTINUOUS
 62
    7
 10
61.355379453599994
 20
126.89756443640002
 11
61.352827506200015
 21
126.85800987320002
  0
LINE
  8
_0-0_0
  6
CONTINUOUS
 62
    7
 10
61.352827506200015
 20
126.85800987320002
 11
61.346121551799996
 21
126.8223929466
  0
LINE
  8
_0-0_0
  6
CONTINUOUS
 62
    7
 10
61.346121551799996
 20
126.8223929466
 11
61.336820049399989
 21
126.79162450880001
  0
LINE
  8
_0-0_0
  6
CONTINUOUS
 62
    7
 10
61.336820049399989
 20
126.79162450880001
 11
61.325951437800001
 21
126.76514752120001
  0
LINE
  8
_0-0_0
  6
CONTINUOUS
 62
    7
 10
61.325951437800001
 20
126.76514752120001
 11
61.3016680307
 21
126.72182928090001
  0
LINE
  8
_0-0_0
  6
CONTINUOUS
 62
    7
 10
61.3016680307
 20
126.72182928090001
 11
61.275593102399995
 21
126.68752859120001
  0
LINE
  8
_0-0_0
  6
CONTINUOUS
 62
    7
 10
61.275593102399995
 20
126.68752859120001
 11
61.221009287800001
 21
126.63603222620002
  0
LINE
  8
_0-0_0
  6
CONTINUOUS
 62
    7
 10
61.221009287800001
 20
126.63603222620002
 11
61.164801384599997
 21
126.60056216520002
  0
LINE
  8
_0-0_0
  6
CONTINUOUS
 62
    7
 10
61.164801384599997
 20
126.60056216520002
 11
61.088787551400003
 21
126.56941840180001
  0
LINE
  8
_0-0_0
  6
CONTINUOUS
 62
    7
 10
61.088787551400003
 20
126.56941840180001
 11
61.012189318100013
 21
126.55273831580001
  0
LINE
  8
_0-0_0
  6
CONTINUOUS
 62
    7
 10
61.012189318100013
 20
126.55273831580001
 11
60.935379454399992
 21
126.54754397120001
  0
LINE
  8
_0-0_0
  6
CONTINUOUS
 62
    7
 10
60.935381949299995
 20
126.54754397120001
 11
52.755379454399986
 21
126.54754397120001
  0
LINE
  8
_0-0_0
  6
CONTINUOUS
 62
    7
 10
60.935381949200007
 20
127.24754397120002
 11
52.755379454399986
 21
127.24754397120002
  0
LINE
  8
_0-0_0
  6
CONTINUOUS
 62
    7
 10
44.575376959499977
 20
126.54754397120001
 11
52.755379454399986
 21
126.54754397120001
  0
LINE
  8
_0-0_0
  6
CONTINUOUS
 62
    7
 10
44.575379454399979
 20
127.24754397120002
 11
44.49857180639998
 21
127.24234868750001
  0
LINE
  8
_0-0_0
  6
CONTINUOUS
 62
    7
 10
44.49857180639998
 20
127.24234868750001
 11
44.421975544199995
 21
127.22567573450002
  0
LINE
  8
_0-0_0
  6
CONTINUOUS
 62
    7
 10
44.421975544199995
 20
127.22567573450002
 11
44.345964158800001
 21
127.19452871580002
  0
LINE
  8
_0-0_0
  6
CONTINUOUS
 62
    7
 10
44.345964158800001
 20
127.19452871580002
 11
44.289771738699983
 21
127.15888781900001
  0
LINE
  8
_0-0_0
  6
CONTINUOUS
 62
    7
 10
44.289771738699983
 20
127.15888781900001
 11
44.235168881699991
 21
127.10756453310002
  0
LINE
  8
_0-0_0
  6
CONTINUOUS
 62
    7
 10
44.235168881699991
 20
127.10756453310002
 11
44.209070397399984
 21
127.073410065
  0
LINE
  8
_0-0_0
  6
CONTINUOUS
 62
    7
 10
44.209070397399984
 20
127.073410065
 11
44.184817406200011
 21
127.02996242980001
  0
LINE
  8
_0-0_0
  6
CONTINUOUS
 62
    7
 10
44.184817406200011
 20
127.02996242980001
 11
44.173946650400012
 21
127.00349515890001
  0
LINE
  8
_0-0_0
  6
CONTINUOUS
 62
    7
 10
44.173946650400012
 20
127.00349515890001
 11
44.164644805299986
 21
126.97272735910001
  0
LINE
  8
_0-0_0
  6
CONTINUOUS
 62
    7
 10
44.164644805299986
 20
126.97272735910001
 11
44.157936109499985
 21
126.93711731100001
  0
LINE
  8
_0-0_0
  6
CONTINUOUS
 62
    7
 10
44.157936109499985
 20
126.93711731100001
 11
44.15537945509999
 21
126.89756443640002
  0
LINE
  8
_0-0_0
  6
CONTINUOUS
 62
    7
 10
44.15537945509999
 20
126.89756443640002
 11
44.157931402499997
 21
126.85800987320002
  0
LINE
  8
_0-0_0
  6
CONTINUOUS
 62
    7
 10
44.157931402499997
 20
126.85800987320002
 11
44.164637356899988
 21
126.8223929466
  0
LINE
  8
_0-0_0
  6
CONTINUOUS
 62
    7
 10
44.164637356899988
 20
126.8223929466
 11
44.173938859399982
 21
126.79162450880001
  0
LINE
  8
_0-0_0
  6
CONTINUOUS
 62
    7
 10
44.173938859399982
 20
126.79162450880001
 11
44.184807470900012
 21
126.76514752120001
  0
LINE
  8
_0-0_0
  6
CONTINUOUS
 62
    7
 10
44.184807470900012
 20
126.76514752120001
 11
44.209090877999984
 21
126.72182928090001
  0
LINE
  8
_0-0_0
  6
CONTINUOUS
 62
    7
 10
44.209090877999984
 20
126.72182928090001
 11
44.235165806299989
 21
126.68752859120001
  0
LINE
  8
_0-0_0
  6
CONTINUOUS
 62
    7
 10
44.235165806299989
 20
126.68752859120001
 11
44.289749620900011
 21
126.63603222620002
  0
LINE
  8
_0-0_0
  6
CONTINUOUS
 62
    7
 10
44.289749620900011
 20
126.63603222620002
 11
44.345957524200003
 21
126.60056216520002
  0
LINE
  8
_0-0_0
  6
CONTINUOUS
 62
    7
 10
44.345957524200003
 20
126.60056216520002
 11
44.421971357299981
 21
126.56941840180001
  0
LINE
  8
_0-0_0
  6
CONTINUOUS
 62
    7
 10
44.421971357299981
 20
126.56941840180001
 11
44.498569590599999
 21
126.55273831580001
  0
LINE
  8
_0-0_0
  6
CONTINUOUS
 62
    7
 10
44.498569590599999
 20
126.55273831580001
 11
44.575379454399979
 21
126.54754397120001
  0
LINE
  8
_0-0_0
  6
CONTINUOUS
 62
    7
 10
44.575376959499977
 20
127.24754397120002
 11
52.755379454399986
 21
127.24754397120002
  0
LINE
  8
_0-0_0
  6
CONTINUOUS
 62
    7
 10
44.555379454399997
 20
127.24754397120002
 11
44.575379454399979
 21
127.24754397120002
  0
LINE
  8
_0-0_0
  6
CONTINUOUS
 62
    7
 10
44.575379454399979
 20
126.54754397120001
 11
44.555379454399997
 21
126.54754397120001
  0
ARC
  8
_0-0_0
  6
CONTINUOUS
 62
    7
 10
44.502802799600005
 20
124.49723542750002
 40
2.750811042281339
 50
88.90483067880001
 51
104.3843312823
  0
ARC
  8
_0-0_0
  6
CONTINUOUS
 62
    7
 10
44.50366484189999
 20
129.3106293267
 40
2.7635692650863821
 50
255.65756774580001
 51
271.07223728000002
  0
LINE
  8
_0-0_0
  6
CONTINUOUS
 62
    7
 10
60.955379454399974
 20
126.54754397120001
 11
60.935381949299995
 21
126.54754397120001
  0
LINE
  8
_0-0_0
  6
CONTINUOUS
 62
    7
 10
60.955379454399974
 20
127.24754397120002
 11
60.935381949200007
 21
127.24754397120002
  0
ARC
  8
_0-0_0
  6
CONTINUOUS
 62
    7
 10
61.007930029600004
 20
124.49691192930001
 40
2.7511339831730099
 50
75.612018769499997
 51
91.094497511599997
  0
ARC
  8
_0-0_0
  6
CONTINUOUS
 62
    7
 10
61.007117998399991
 20
129.31033041060002
 40
2.7632708492543112
 50
268.92715061029992
 51
284.33916712949997
  0
LINE
  8
_0-0_0
  6
CONTINUOUS
 62
    7
 10
46.602624148699988
 20
125.90754397120001
 11
46.602624148699988
 21
126.54754397120001
  0
LINE
  8
_0-0_0
  6
CONTINUOUS
 62
    7
 10
58.908134760099983
 20
125.90754397120001
 11
58.908134760099983
 21
126.54754397120001
  0
LINE
  8
_0-0_0
  6
CONTINUOUS
 62
    7
 10
46.602624148699988
 20
125.90754397120001
 11
58.908134760099983
 21
125.90754397120001
  0
POINT
  8
_0-0_0
 62
    7
 10
43.45539115119999
 20
126.89889520890002
  0
POINT
  8
_0-0_0
 62
    7
 10
62.055370701800001
 20
126.89889520890002
  0
INSERT
  2
-004-_D_3
  8
_0-0_0
 10
-5.9000000000000057
 20
8.8000000000000114
 41
1
 42
1
 50
0
  0
LINE
  8
_0-0_0
  6
CONTINUOUS
 62
    7
 10
61.355378169999994
 20
168.64685244770001
 11
52.755379454399986
 21
168.64685244770001
  0
LINE
  8
_0-0_0
  6
CONTINUOUS
 62
    7
 10
52.755379454399986
 20
168.64685244770001
 11
44.155380738799977
 21
168.64685244770001
  0
LINE
  8
_0-0_0
  6
CONTINUOUS
 62
    7
 10
43.455379454400003
 20
167.94685116330001
 11
43.455379454400003
 21
159.3468524477
  0
LINE
  8
_0-0_0
  6
CONTINUOUS
 62
    7
 10
62.055379454399997
 20
159.3468524477
 11
62.055379454399997
 21
167.94685116330001
  0
LINE
  8
_0-0_0
  6
CONTINUOUS
 62
    7
 10
62.055379454399997
 20
150.74685373210002
 11
62.055379454399997
 21
159.3468524477
  0
LINE
  8
_0-0_0
  6
CONTINUOUS
 62
    7
 10
43.455379454400003
 20
159.3468524477
 11
43.455379454400003
 21
150.74685373210002
  0
LINE
  8
_0-0_0
  6
CONTINUOUS
 62
    7
 10
52.755379454399986
 20
150.04685244770002
 11
61.355378169999994
 21
150.04685244770002
  0
LINE
  8
_0-0_0
  6
CONTINUOUS
 62
    7
 10
44.155380738799977
 20
150.04685244770002
 11
52.755379454399986
 21
150.04685244770002
  0
ARC
  8
_0-0_0
  6
CONTINUOUS
 62
    7
 10
61.355517385499979
 20
167.94699037880002
 40
0.6998620824252777
 50
359.98870795670001
 51
90.011292043299974
  0
ARC
  8
_0-0_0
  6
CONTINUOUS
 62
    7
 10
44.155241523200004
 20
167.94699037880002
 40
0.699862082425306
 50
89.988707956699997
 51
180.01129204329999
  0
ARC
  8
_0-0_0
  6
CONTINUOUS
 62
    7
 10
61.355517385499979
 20
150.74671451650002
 40
0.6998620824252633
 50
269.98870795670001
 51
0.0112920432999759
  0
ARC
  8
_0-0_0
  6
CONTINUOUS
 62
    7
 10
44.155241523200004
 20
150.74671451650002
 40
0.6998620824253344
 50
179.98870795670001
 51
270.01129204329999
  0
INSERT
  2
-005-_D_4
  8
_0-0_0
 10
-5.9000000000000057
 20
8.8000000000000114
 41
1
 42
1
 50
0
  0
LINE
  8
_0-0_0
  6
CONTINUOUS
 62
    7
 10
109.01943260279999
 20
120.66754397120002
 11
109.01943260279999
 21
120.78754397120001
  0
LINE
  8
_0-0_0
  6
CONTINUOUS
 62
    7
 10
108.69943260279999
 20
120.78754397120001
 11
108.69943260279999
 21
120.66754397120002
  0
ARC
  8
_0-0_0
  6
CONTINUOUS
 62
    7
 10
108.9994326028
 20
120.66754397120002
 40
0.0200000000000102
 50
270
 51
0
  0
ARC
  8
_0-0_0
  6
CONTINUOUS
 62
    7
 10
108.7194326028
 20
120.66754397120002
 40
0.019999999999996
 50
180
 51
270
  0
ARC
  8
_0-0_0
  6
CONTINUOUS
 62
    7
 10
96.39943260279999
 20
120.66754397120002
 40
0.019999999999996
 50
270
 51
0
  0
ARC
  8
_0-0_0
  6
CONTINUOUS
 62
    7
 10
96.119432602799989
 20
120.66754397120002
 40
0.019999999999996
 50
180
 51
270
  0
LINE
  8
_0-0_0
  6
CONTINUOUS
 62
    7
 10
96.419432602800001
 20
120.66754397120002
 11
96.419432602800001
 21
120.78754397120001
  0
LINE
  8
_0-0_0
  6
CONTINUOUS
 62
    7
 10
96.099432602799993
 20
120.78754397120001
 11
96.099432602799993
 21
120.66754397120002
  0
LINE
  8
_0-0_0
  6
CONTINUOUS
 62
    7
 10
96.418432602799996
 20
120.78754397120001
 11
96.418432602799996
 21
125.40754397120001
  0
LINE
  8
_0-0_0
  6
CONTINUOUS
 62
    7
 10
96.418432602799996
 20
126.04754397120001
 11
96.418432602799996
 21
126.54754397120001
  0
LINE
  8
_0-0_0
  6
CONTINUOUS
 62
    7
 10
96.100432602799998
 20
126.54754397120001
 11
96.100432602799998
 21
120.78754397120001
  0
LINE
  8
_0-0_0
  6
CONTINUOUS
 62
    7
 10
111.4954901789
 20
126.63259344930002
 11
111.5956051389
 21
126.66562497910002
  0
LINE
  8
_0-0_0
  6
CONTINUOUS
 62
    7
 10
111.5956051389
 20
126.66562497910002
 11
111.6775639377
 21
126.70241003520002
  0
LINE
  8
_0-0_0
  6
CONTINUOUS
 62
    7
 10
111.6775639377
 20
126.70241003520002
 11
111.74214291019999
 21
126.74208144710001
  0
LINE
  8
_0-0_0
  6
CONTINUOUS
 62
    7
 10
111.74214291019999
 20
126.74208144710001
 11
111.77990498049999
 21
126.77317236930001
  0
LINE
  8
_0-0_0
  6
CONTINUOUS
 62
    7
 10
111.77990498049999
 20
126.77317236930001
 11
111.8091477493
 21
126.80463297850001
  0
LINE
  8
_0-0_0
  6
CONTINUOUS
 62
    7
 10
111.8091477493
 20
126.80463297850001
 11
111.8306387782
 21
126.83838771050002
  0
LINE
  8
_0-0_0
  6
CONTINUOUS
 62
    7
 10
111.8306387782
 20
126.83838771050002
 11
111.84283431029999
 21
126.87431237780001
  0
LINE
  8
_0-0_0
  6
CONTINUOUS
 62
    7
 10
111.84283431029999
 20
126.87431237780001
 11
111.84454394719999
 21
126.90912492170001
  0
LINE
  8
_0-0_0
  6
CONTINUOUS
 62
    7
 10
111.84454394719999
 20
126.90912492170001
 11
111.8384149698
 21
126.93783527440002
  0
LINE
  8
_0-0_0
  6
CONTINUOUS
 62
    7
 10
111.8384149698
 20
126.93783527440002
 11
111.83336619289999
 21
126.95114723110001
  0
LINE
  8
_0-0_0
  6
CONTINUOUS
 62
    7
 10
111.83336619289999
 20
126.95114723110001
 11
111.82555296139999
 21
126.96739263170001
  0
LINE
  8
_0-0_0
  6
CONTINUOUS
 62
    7
 10
111.82555296139999
 20
126.96739263170001
 11
111.79853420399999
 21
127.00594422810001
  0
LINE
  8
_0-0_0
  6
CONTINUOUS
 62
    7
 10
111.79853420399999
 20
127.00594422810001
 11
111.75308152599999
 21
127.04776150260001
  0
LINE
  8
_0-0_0
  6
CONTINUOUS
 62
    7
 10
111.75308152599999
 20
127.04776150260001
 11
111.68749358839999
 21
127.08894224430001
  0
LINE
  8
_0-0_0
  6
CONTINUOUS
 62
    7
 10
111.68749358839999
 20
127.08894224430001
 11
111.60137204249999
 21
127.12751442340002
  0
LINE
  8
_0-0_0
  6
CONTINUOUS
 62
    7
 10
111.60137204249999
 20
127.12751442340002
 11
111.4953811165
 21
127.16234801030001
  0
LINE
  8
_0-0_0
  6
CONTINUOUS
 62
    7
 10
93.623484088999987
 20
127.16234801030001
 11
93.546649398699998
 21
127.13804706210001
  0
LINE
  8
_0-0_0
  6
CONTINUOUS
 62
    7
 10
93.546649398699998
 20
127.13804706210001
 11
93.480071798299988
 21
127.11145507770001
  0
LINE
  8
_0-0_0
  6
CONTINUOUS
 62
    7
 10
93.480071798299988
 20
127.11145507770001
 11
93.4235426682
 21
127.08312527910002
  0
LINE
  8
_0-0_0
  6
CONTINUOUS
 62
    7
 10
93.4235426682
 20
127.08312527910002
 11
93.376703417899989
 21
127.05309036250001
  0
LINE
  8
_0-0_0
  6
CONTINUOUS
 62
    7
 10
93.376703417899989
 20
127.05309036250001
 11
93.338978968599989
 21
127.02192852840001
  0
LINE
  8
_0-0_0
  6
CONTINUOUS
 62
    7
 10
93.338978968599989
 20
127.02192852840001
 11
93.309728277299996
 21
126.99047902140001
  0
LINE
  8
_0-0_0
  6
CONTINUOUS
 62
    7
 10
93.309728277299996
 20
126.99047902140001
 11
93.288237298399991
 21
126.95672309140001
  0
LINE
  8
_0-0_0
  6
CONTINUOUS
 62
    7
 10
93.288237298399991
 20
126.95672309140001
 11
93.276035629899994
 21
126.92080283820002
  0
LINE
  8
_0-0_0
  6
CONTINUOUS
 62
    7
 10
93.276035629899994
 20
126.92080283820002
 11
93.274318596599997
 21
126.8859915606
  0
LINE
  8
_0-0_0
  6
CONTINUOUS
 62
    7
 10
93.274318596599997
 20
126.8859915606
 11
93.280441146800001
 21
126.85728277740002
  0
LINE
  8
_0-0_0
  6
CONTINUOUS
 62
    7
 10
93.280441146800001
 20
126.85728277740002
 11
93.285487579599987
 21
126.84396702230001
  0
LINE
  8
_0-0_0
  6
CONTINUOUS
 62
    7
 10
93.285487579599987
 20
126.84396702230001
 11
93.293299032699991
 21
126.82771815260001
  0
LINE
  8
_0-0_0
  6
CONTINUOUS
 62
    7
 10
93.293299032699991
 20
126.82771815260001
 11
93.320315455199989
 21
126.78916773670001
  0
LINE
  8
_0-0_0
  6
CONTINUOUS
 62
    7
 10
93.320315455199989
 20
126.78916773670001
 11
93.365785573699995
 21
126.74739150490001
  0
LINE
  8
_0-0_0
  6
CONTINUOUS
 62
    7
 10
93.365785573699995
 20
126.74739150490001
 11
93.431382586799998
 21
126.70623844440001
  0
LINE
  8
_0-0_0
  6
CONTINUOUS
 62
    7
 10
93.431382586799998
 20
126.70623844440001
 11
93.517441170399991
 21
126.66754455170002
  0
LINE
  8
_0-0_0
  6
CONTINUOUS
 62
    7
 10
93.517441170399991
 20
126.66754455170002
 11
93.623375026699989
 21
126.63259344930002
  0
LINE
  8
_0-0_0
  6
CONTINUOUS
 62
    7
 10
109.01843260279999
 20
120.78754397120001
 11
109.01843260279999
 21
126.54754397120001
  0
LINE
  8
_0-0_0
  6
CONTINUOUS
 62
    7
 10
108.70043260279999
 20
126.54754397120001
 11
108.70043260279999
 21
126.04754397120001
  0
LINE
  8
_0-0_0
  6
CONTINUOUS
 62
    7
 10
108.70043260279999
 20
125.40754397120001
 11
108.70043260279999
 21
120.78754397120001
  0
LINE
  8
_0-0_0
  6
CONTINUOUS
 62
    7
 10
109.01943260279999
 20
120.78754397120001
 11
108.69943260279999
 21
120.78754397120001
  0
LINE
  8
_0-0_0
  6
CONTINUOUS
 62
    7
 10
108.9994326028
 20
120.64754397120001
 11
108.7194326028
 21
120.64754397120001
  0
LINE
  8
_0-0_0
  6
CONTINUOUS
 62
    7
 10
96.133043523399991
 20
120.64754397120001
 11
96.119432602799989
 21
120.64754397120001
  0
LINE
  8
_0-0_0
  6
CONTINUOUS
 62
    7
 10
96.39943260279999
 20
120.64754397120001
 11
96.133043523399991
 21
120.64754397120001
  0
LINE
  8
_0-0_0
  6
CONTINUOUS
 62
    7
 10
96.114987940599988
 20
120.78754397120001
 11
96.099432602799993
 21
120.78754397120001
  0
LINE
  8
_0-0_0
  6
CONTINUOUS
 62
    7
 10
96.419432602800001
 20
120.78754397120001
 11
96.114987940599988
 21
120.78754397120001
  0
LINE
  8
_0-0_0
  6
CONTINUOUS
 62
    7
 10
108.7121879085
 20
126.04754397120001
 11
108.7121879085
 21
125.40754397120001
  0
LINE
  8
_0-0_0
  6
CONTINUOUS
 62
    7
 10
108.7121879085
 20
125.40754397120001
 11
96.406677297099989
 21
125.40754397120001
  0
LINE
  8
_0-0_0
  6
CONTINUOUS
 62
    7
 10
96.406677297099989
 20
126.04754397120001
 11
96.406677297099989
 21
125.40754397120001
  0
LINE
  8
_0-0_0
  6
CONTINUOUS
 62
    7
 10
108.7121879085
 20
126.04754397120001
 11
96.406677297099989
 21
126.04754397120001
  0
LINE
  8
_0-0_0
  6
CONTINUOUS
 62
    7
 10
102.5594326028
 20
126.54754397120001
 11
110.73943260279999
 21
126.54754397120001
  0
LINE
  8
_0-0_0
  6
CONTINUOUS
 62
    7
 10
102.5594326028
 20
127.24754397120002
 11
110.73943260279999
 21
127.24754397120002
  0
LINE
  8
_0-0_0
  6
CONTINUOUS
 62
    7
 10
110.73943260279999
 20
127.24754397120002
 11
110.81624025069999
 21
127.24234868750001
  0
LINE
  8
_0-0_0
  6
CONTINUOUS
 62
    7
 10
110.81624025069999
 20
127.24234868750001
 11
110.89283651289999
 21
127.22567573450002
  0
LINE
  8
_0-0_0
  6
CONTINUOUS
 62
    7
 10
110.89283651289999
 20
127.22567573450002
 11
110.9688478983
 21
127.19452871580002
  0
LINE
  8
_0-0_0
  6
CONTINUOUS
 62
    7
 10
110.9688478983
 20
127.19452871580002
 11
111.02504031849999
 21
127.15888781900001
  0
LINE
  8
_0-0_0
  6
CONTINUOUS
 62
    7
 10
111.02504031849999
 20
127.15888781900001
 11
111.07964317539999
 21
127.10756453310002
  0
LINE
  8
_0-0_0
  6
CONTINUOUS
 62
    7
 10
111.07964317539999
 20
127.10756453310002
 11
111.1057416597
 21
127.073410065
  0
LINE
  8
_0-0_0
  6
CONTINUOUS
 62
    7
 10
111.1057416597
 20
127.073410065
 11
111.12999465089999
 21
127.02996242980001
  0
LINE
  8
_0-0_0
  6
CONTINUOUS
 62
    7
 10
111.12999465089999
 20
127.02996242980001
 11
111.14086540669999
 21
127.00349515890001
  0
LINE
  8
_0-0_0
  6
CONTINUOUS
 62
    7
 10
111.14086540669999
 20
127.00349515890001
 11
111.1501672518
 21
126.97272735910001
  0
LINE
  8
_0-0_0
  6
CONTINUOUS
 62
    7
 10
111.1501672518
 20
126.97272735910001
 11
111.1568759476
 21
126.93711731100001
  0
LINE
  8
_0-0_0
  6
CONTINUOUS
 62
    7
 10
111.1568759476
 20
126.93711731100001
 11
111.159432602
 21
126.89756443640002
  0
LINE
  8
_0-0_0
  6
CONTINUOUS
 62
    7
 10
111.159432602
 20
126.89756443640002
 11
111.15688065459999
 21
126.85800987320002
  0
LINE
  8
_0-0_0
  6
CONTINUOUS
 62
    7
 10
111.15688065459999
 20
126.85800987320002
 11
111.1501747002
 21
126.8223929466
  0
LINE
  8
_0-0_0
  6
CONTINUOUS
 62
    7
 10
111.1501747002
 20
126.8223929466
 11
111.14087319779999
 21
126.79162450880001
  0
LINE
  8
_0-0_0
  6
CONTINUOUS
 62
    7
 10
111.14087319779999
 20
126.79162450880001
 11
111.13000458619999
 21
126.76514752120001
  0
LINE
  8
_0-0_0
  6
CONTINUOUS
 62
    7
 10
111.13000458619999
 20
126.76514752120001
 11
111.10572117909999
 21
126.72182928090001
  0
LINE
  8
_0-0_0
  6
CONTINUOUS
 62
    7
 10
111.10572117909999
 20
126.72182928090001
 11
111.0796462508
 21
126.68752859120001
  0
LINE
  8
_0-0_0
  6
CONTINUOUS
 62
    7
 10
111.0796462508
 20
126.68752859120001
 11
111.02506243619999
 21
126.63603222620002
  0
LINE
  8
_0-0_0
  6
CONTINUOUS
 62
    7
 10
111.02506243619999
 20
126.63603222620002
 11
110.968854533
 21
126.60056216520002
  0
LINE
  8
_0-0_0
  6
CONTINUOUS
 62
    7
 10
110.968854533
 20
126.60056216520002
 11
110.89284069979999
 21
126.56941840180001
  0
LINE
  8
_0-0_0
  6
CONTINUOUS
 62
    7
 10
110.89284069979999
 20
126.56941840180001
 11
110.8162424665
 21
126.55273831580001
  0
LINE
  8
_0-0_0
  6
CONTINUOUS
 62
    7
 10
110.8162424665
 20
126.55273831580001
 11
110.73943260279999
 21
126.54754397120001
  0
LINE
  8
_0-0_0
  6
CONTINUOUS
 62
    7
 10
102.5594326028
 20
127.24754397120002
 11
94.379432602799994
 21
127.24754397120002
  0
LINE
  8
_0-0_0
  6
CONTINUOUS
 62
    7
 10
102.5594326028
 20
126.54754397120001
 11
94.379432602799994
 21
126.54754397120001
  0
LINE
  8
_0-0_0
  6
CONTINUOUS
 62
    7
 10
94.379432602799994
 20
127.24754397120002
 11
94.302624954799995
 21
127.24234868750001
  0
LINE
  8
_0-0_0
  6
CONTINUOUS
 62
    7
 10
94.302624954799995
 20
127.24234868750001
 11
94.226028692599996
 21
127.22567573450002
  0
LINE
  8
_0-0_0
  6
CONTINUOUS
 62
    7
 10
94.226028692599996
 20
127.22567573450002
 11
94.150017307199988
 21
127.19452871580002
  0
LINE
  8
_0-0_0
  6
CONTINUOUS
 62
    7
 10
94.150017307199988
 20
127.19452871580002
 11
94.093824886999997
 21
127.15888781900001
  0
LINE
  8
_0-0_0
  6
CONTINUOUS
 62
    7
 10
94.093824886999997
 20
127.15888781900001
 11
94.039222030099992
 21
127.10756453310002
  0
LINE
  8
_0-0_0
  6
CONTINUOUS
 62
    7
 10
94.039222030099992
 20
127.10756453310002
 11
94.013123545799999
 21
127.073410065
  0
LINE
  8
_0-0_0
  6
CONTINUOUS
 62
    7
 10
94.013123545799999
 20
127.073410065
 11
93.988870554599998
 21
127.02996242980001
  0
LINE
  8
_0-0_0
  6
CONTINUOUS
 62
    7
 10
93.988870554599998
 20
127.02996242980001
 11
93.977999798799999
 21
127.00349515890001
  0
LINE
  8
_0-0_0
  6
CONTINUOUS
 62
    7
 10
93.977999798799999
 20
127.00349515890001
 11
93.968697953700001
 21
126.97272735910001
  0
LINE
  8
_0-0_0
  6
CONTINUOUS
 62
    7
 10
93.968697953700001
 20
126.97272735910001
 11
93.961989257900001
 21
126.93711731100001
  0
LINE
  8
_0-0_0
  6
CONTINUOUS
 62
    7
 10
93.961989257900001
 20
126.93711731100001
 11
93.959432603499991
 21
126.89756443640002
  0
LINE
  8
_0-0_0
  6
CONTINUOUS
 62
    7
 10
93.959432603499991
 20
126.89756443640002
 11
93.961984550899999
 21
126.85800987320002
  0
LINE
  8
_0-0_0
  6
CONTINUOUS
 62
    7
 10
93.961984550899999
 20
126.85800987320002
 11
93.968690505299989
 21
126.8223929466
  0
LINE
  8
_0-0_0
  6
CONTINUOUS
 62
    7
 10
93.968690505299989
 20
126.8223929466
 11
93.977992007799998
 21
126.79162450880001
  0
LINE
  8
_0-0_0
  6
CONTINUOUS
 62
    7
 10
93.977992007799998
 20
126.79162450880001
 11
93.988860619299999
 21
126.76514752120001
  0
LINE
  8
_0-0_0
  6
CONTINUOUS
 62
    7
 10
93.988860619299999
 20
126.76514752120001
 11
94.013144026399999
 21
126.72182928090001
  0
LINE
  8
_0-0_0
  6
CONTINUOUS
 62
    7
 10
94.013144026399999
 20
126.72182928090001
 11
94.03921895469999
 21
126.68752859120001
  0
LINE
  8
_0-0_0
  6
CONTINUOUS
 62
    7
 10
94.03921895469999
 20
126.68752859120001
 11
94.093802769299998
 21
126.63603222620002
  0
LINE
  8
_0-0_0
  6
CONTINUOUS
 62
    7
 10
94.093802769299998
 20
126.63603222620002
 11
94.15001067259999
 21
126.60056216520002
  0
LINE
  8
_0-0_0
  6
CONTINUOUS
 62
    7
 10
94.15001067259999
 20
126.60056216520002
 11
94.226024505699996
 21
126.56941840180001
  0
LINE
  8
_0-0_0
  6
CONTINUOUS
 62
    7
 10
94.226024505699996
 20
126.56941840180001
 11
94.302622739
 21
126.55273831580001
  0
LINE
  8
_0-0_0
  6
CONTINUOUS
 62
    7
 10
94.302622739
 20
126.55273831580001
 11
94.379432602799994
 21
126.54754397120001
  0
LINE
  8
_0-0_0
  6
CONTINUOUS
 62
    7
 10
110.73943260279999
 20
127.24754397120002
 11
110.75943260279999
 21
127.24754397120002
  0
ARC
  8
_0-0_0
  6
CONTINUOUS
 62
    7
 10
110.81198317799999
 20
124.49691192930001
 40
2.7511339831714539
 50
75.612018769499997
 51
91.094497511599997
  0
ARC
  8
_0-0_0
  6
CONTINUOUS
 62
    7
 10
110.81117114679999
 20
129.31033041060002
 40
2.7632708492553899
 50
268.92715061029992
 51
284.33916712949997
  0
LINE
  8
_0-0_0
  6
CONTINUOUS
 62
    7
 10
110.73943260279999
 20
126.54754397120001
 11
110.75943260279999
 21
126.54754397120001
  0
ARC
  8
_0-0_0
  6
CONTINUOUS
 62
    7
 10
94.306855947999992
 20
124.49723542750002
 40
2.750811042279508
 50
88.90483067880001
 51
104.3843312823
  0
ARC
  8
_0-0_0
  6
CONTINUOUS
 62
    7
 10
94.307717990299992
 20
129.3106293267
 40
2.763569265086665
 50
255.65756774569996
 51
271.07223728000002
  0
LINE
  8
_0-0_0
  6
CONTINUOUS
 62
    7
 10
94.379432602799994
 20
127.24754397120002
 11
94.359432602799998
 21
127.24754397120002
  0
LINE
  8
_0-0_0
  6
CONTINUOUS
 62
    7
 10
94.379432602799994
 20
126.54754397120001
 11
94.359432602799998
 21
126.54754397120001
  0
INSERT
  2
-006-_D_5
  8
_0-0_0
 10
-5.9000000000000057
 20
8.8000000000000114
 41
1
 42
1
 50
0
  0
ARC
  8
_0-0_0
  6
CONTINUOUS
 62
    7
 10
64.795379454400006
 20
212.52120674610001
 40
0.0200000000000386
 50
270
 51
0
  0
ARC
  8
_0-0_0
  6
CONTINUOUS
 62
    7
 10
64.515379454399977
 20
212.52120674610001
 40
0.0200000000000386
 50
180
 51
270
  0
LINE
  8
_0-0_0
  6
CONTINUOUS
 62
    7
 10
64.815379454399988
 20
212.52120674610001
 11
64.815379454399988
 21
212.64120674610001
  0
LINE
  8
_0-0_0
  6
CONTINUOUS
 62
    7
 10
64.495379454399995
 20
212.64120674610001
 11
64.495379454399995
 21
212.52120674610001
  0
LINE
  8
_0-0_0
  6
CONTINUOUS
 62
    7
 10
41.015379454399977
 20
212.52120674610001
 11
41.015379454399977
 21
212.64120674610001
  0
LINE
  8
_0-0_0
  6
CONTINUOUS
 62
    7
 10
40.695379454399983
 20
212.64120674610001
 11
40.695379454399983
 21
212.52120674610001
  0
ARC
  8
_0-0_0
  6
CONTINUOUS
 62
    7
 10
40.995379454399995
 20
212.52120674610001
 40
0.0200000000000386
 50
270
 51
0
  0
ARC
  8
_0-0_0
  6
CONTINUOUS
 62
    7
 10
40.715379454399994
 20
212.52120674610001
 40
0.0200000000000386
 50
180
 51
270
  0
LINE
  8
_0-0_0
  6
CONTINUOUS
 62
    7
 10
64.814379454400012
 20
212.64120674610001
 11
64.814379454400012
 21
216.00120674610002
  0
LINE
  8
_0-0_0
  6
CONTINUOUS
 62
    7
 10
64.4963794544
 20
215.36120674610001
 11
64.4963794544
 21
212.64120674610001
  0
LINE
  8
_0-0_0
  6
CONTINUOUS
 62
    7
 10
37.219430940699993
 20
216.61601078520002
 11
37.142596250299988
 21
216.59170983700002
  0
LINE
  8
_0-0_0
  6
CONTINUOUS
 62
    7
 10
37.142596250299988
 20
216.59170983700002
 11
37.076018649899993
 21
216.56511785260003
  0
LINE
  8
_0-0_0
  6
CONTINUOUS
 62
    7
 10
37.076018649899993
 20
216.56511785260003
 11
37.019489519800004
 21
216.536788054
  0
LINE
  8
_0-0_0
  6
CONTINUOUS
 62
    7
 10
37.019489519800004
 20
216.536788054
 11
36.972650269499979
 21
216.50675313740001
  0
LINE
  8
_0-0_0
  6
CONTINUOUS
 62
    7
 10
36.972650269499979
 20
216.50675313740001
 11
36.934925820300009
 21
216.47559130330001
  0
LINE
  8
_0-0_0
  6
CONTINUOUS
 62
    7
 10
36.934925820300009
 20
216.47559130330001
 11
36.905675128899986
 21
216.44414179630002
  0
LINE
  8
_0-0_0
  6
CONTINUOUS
 62
    7
 10
36.905675128899986
 20
216.44414179630002
 11
36.88418415000001
 21
216.4103858663
  0
LINE
  8
_0-0_0
  6
CONTINUOUS
 62
    7
 10
36.88418415000001
 20
216.4103858663
 11
36.871982481499998
 21
216.3744656131
  0
LINE
  8
_0-0_0
  6
CONTINUOUS
 62
    7
 10
36.871982481499998
 20
216.3744656131
 11
36.870265448200001
 21
216.3396543355
  0
LINE
  8
_0-0_0
  6
CONTINUOUS
 62
    7
 10
36.870265448200001
 20
216.3396543355
 11
36.876387998399991
 21
216.31094555230001
  0
LINE
  8
_0-0_0
  6
CONTINUOUS
 62
    7
 10
36.876387998399991
 20
216.31094555230001
 11
36.881434431199978
 21
216.29762979720002
  0
LINE
  8
_0-0_0
  6
CONTINUOUS
 62
    7
 10
36.881434431199978
 20
216.29762979720002
 11
36.88924588430001
 21
216.28138092750001
  0
LINE
  8
_0-0_0
  6
CONTINUOUS
 62
    7
 10
36.88924588430001
 20
216.28138092750001
 11
36.916262306799979
 21
216.2428305116
  0
LINE
  8
_0-0_0
  6
CONTINUOUS
 62
    7
 10
36.916262306799979
 20
216.2428305116
 11
36.961732425299999
 21
216.20105427980002
  0
LINE
  8
_0-0_0
  6
CONTINUOUS
 62
    7
 10
36.961732425299999
 20
216.20105427980002
 11
37.027329438399988
 21
216.15990121930002
  0
LINE
  8
_0-0_0
  6
CONTINUOUS
 62
    7
 10
37.027329438399988
 20
216.15990121930002
 11
37.113388021999981
 21
216.1212073266
  0
LINE
  8
_0-0_0
  6
CONTINUOUS
 62
    7
 10
37.113388021999981
 20
216.1212073266
 11
37.219321878299979
 21
216.08625622420001
  0
LINE
  8
_0-0_0
  6
CONTINUOUS
 62
    7
 10
68.291437030499992
 20
216.08625622420001
 11
68.391551990499977
 21
216.119287754
  0
LINE
  8
_0-0_0
  6
CONTINUOUS
 62
    7
 10
68.391551990499977
 20
216.119287754
 11
68.473510789300008
 21
216.1560728101
  0
LINE
  8
_0-0_0
  6
CONTINUOUS
 62
    7
 10
68.473510789300008
 20
216.1560728101
 11
68.538089761799995
 21
216.195744222
  0
LINE
  8
_0-0_0
  6
CONTINUOUS
 62
    7
 10
68.538089761799995
 20
216.195744222
 11
68.5758518321
 21
216.22683514420001
  0
LINE
  8
_0-0_0
  6
CONTINUOUS
 62
    7
 10
68.5758518321
 20
216.22683514420001
 11
68.605094600899974
 21
216.25829575340001
  0
LINE
  8
_0-0_0
  6
CONTINUOUS
 62
    7
 10
68.605094600899974
 20
216.25829575340001
 11
68.626585629899978
 21
216.29205048540001
  0
LINE
  8
_0-0_0
  6
CONTINUOUS
 62
    7
 10
68.626585629899978
 20
216.29205048540001
 11
68.638781161899999
 21
216.32797515270002
  0
LINE
  8
_0-0_0
  6
CONTINUOUS
 62
    7
 10
68.638781161899999
 20
216.32797515270002
 11
68.640490798799988
 21
216.36278769660001
  0
LINE
  8
_0-0_0
  6
CONTINUOUS
 62
    7
 10
68.640490798799988
 20
216.36278769660001
 11
68.634361821399978
 21
216.3914980493
  0
LINE
  8
_0-0_0
  6
CONTINUOUS
 62
    7
 10
68.634361821399978
 20
216.3914980493
 11
68.629313044500009
 21
216.40481000600002
  0
LINE
  8
_0-0_0
  6
CONTINUOUS
 62
    7
 10
68.629313044500009
 20
216.40481000600002
 11
68.621499813000014
 21
216.4210554066
  0
LINE
  8
_0-0_0
  6
CONTINUOUS
 62
    7
 10
68.621499813000014
 20
216.4210554066
 11
68.594481055599999
 21
216.459607003
  0
LINE
  8
_0-0_0
  6
CONTINUOUS
 62
    7
 10
68.594481055599999
 20
216.459607003
 11
68.549028377599996
 21
216.50142427750001
  0
LINE
  8
_0-0_0
  6
CONTINUOUS
 62
    7
 10
68.549028377599996
 20
216.50142427750001
 11
68.483440439999981
 21
216.54260501920001
  0
LINE
  8
_0-0_0
  6
CONTINUOUS
 62
    7
 10
68.483440439999981
 20
216.54260501920001
 11
68.39731889410001
 21
216.58117719830003
  0
LINE
  8
_0-0_0
  6
CONTINUOUS
 62
    7
 10
68.39731889410001
 20
216.58117719830003
 11
68.291327968100006
 21
216.61601078520002
  0
LINE
  8
_0-0_0
  6
CONTINUOUS
 62
    7
 10
41.0143794544
 20
212.64120674610001
 11
41.0143794544
 21
215.36120674610001
  0
LINE
  8
_0-0_0
  6
CONTINUOUS
 62
    7
 10
40.696379454399988
 20
216.00120674610002
 11
40.696379454399988
 21
212.64120674610001
  0
LINE
  8
_0-0_0
  6
CONTINUOUS
 62
    7
 10
64.715594075599995
 20
212.50120674610002
 11
64.515379454399977
 21
212.50120674610002
  0
LINE
  8
_0-0_0
  6
CONTINUOUS
 62
    7
 10
64.795379454400006
 20
212.50120674610002
 11
64.715594075599995
 21
212.50120674610002
  0
LINE
  8
_0-0_0
  6
CONTINUOUS
 62
    7
 10
64.724196164299997
 20
212.64120674610001
 11
64.495379454399995
 21
212.64120674610001
  0
LINE
  8
_0-0_0
  6
CONTINUOUS
 62
    7
 10
64.815379454399988
 20
212.64120674610001
 11
64.724196164299997
 21
212.64120674610001
  0
LINE
  8
_0-0_0
  6
CONTINUOUS
 62
    7
 10
41.015379454399977
 20
212.64120674610001
 11
40.695379454399983
 21
212.64120674610001
  0
LINE
  8
_0-0_0
  6
CONTINUOUS
 62
    7
 10
40.995379454399995
 20
212.50120674610002
 11
40.715379454399994
 21
212.50120674610002
  0
LINE
  8
_0-0_0
  6
CONTINUOUS
 62
    7
 10
67.535379454400015
 20
216.70120674610001
 11
67.612187102299998
 21
216.69601146240001
  0
LINE
  8
_0-0_0
  6
CONTINUOUS
 62
    7
 10
67.612187102299998
 20
216.69601146240001
 11
67.688783364500011
 21
216.6793385094
  0
LINE
  8
_0-0_0
  6
CONTINUOUS
 62
    7
 10
67.688783364500011
 20
216.6793385094
 11
67.764794749899977
 21
216.64819149070001
  0
LINE
  8
_0-0_0
  6
CONTINUOUS
 62
    7
 10
67.764794749899977
 20
216.64819149070001
 11
67.820987170100011
 21
216.612550594
  0
LINE
  8
_0-0_0
  6
CONTINUOUS
 62
    7
 10
67.820987170100011
 20
216.612550594
 11
67.875590027099975
 21
216.56122730800001
  0
LINE
  8
_0-0_0
  6
CONTINUOUS
 62
    7
 10
67.875590027099975
 20
216.56122730800001
 11
67.901688511299994
 21
216.5270728399
  0
LINE
  8
_0-0_0
  6
CONTINUOUS
 62
    7
 10
67.901688511299994
 20
216.5270728399
 11
67.925941502499995
 21
216.48362520470002
  0
LINE
  8
_0-0_0
  6
CONTINUOUS
 62
    7
 10
67.925941502499995
 20
216.48362520470002
 11
67.936812258299994
 21
216.4571579338
  0
LINE
  8
_0-0_0
  6
CONTINUOUS
 62
    7
 10
67.936812258299994
 20
216.4571579338
 11
67.946114103399992
 21
216.426390134
  0
LINE
  8
_0-0_0
  6
CONTINUOUS
 62
    7
 10
67.946114103399992
 20
216.426390134
 11
67.952822799300009
 21
216.39078008590002
  0
LINE
  8
_0-0_0
  6
CONTINUOUS
 62
    7
 10
67.952822799300009
 20
216.39078008590002
 11
67.955379453599988
 21
216.3512272113
  0
LINE
  8
_0-0_0
  6
CONTINUOUS
 62
    7
 10
67.955379453599988
 20
216.3512272113
 11
67.952827506199981
 21
216.3116726481
  0
LINE
  8
_0-0_0
  6
CONTINUOUS
 62
    7
 10
67.952827506199981
 20
216.3116726481
 11
67.94612155179999
 21
216.2760557215
  0
LINE
  8
_0-0_0
  6
CONTINUOUS
 62
    7
 10
67.94612155179999
 20
216.2760557215
 11
67.936820049400012
 21
216.24528728370001
  0
LINE
  8
_0-0_0
  6
CONTINUOUS
 62
    7
 10
67.936820049400012
 20
216.24528728370001
 11
67.925951437799995
 21
216.2188102961
  0
LINE
  8
_0-0_0
  6
CONTINUOUS
 62
    7
 10
67.925951437799995
 20
216.2188102961
 11
67.901668030699994
 21
216.17549205580002
  0
LINE
  8
_0-0_0
  6
CONTINUOUS
 62
    7
 10
67.901668030699994
 20
216.17549205580002
 11
67.875593102399989
 21
216.1411913661
  0
LINE
  8
_0-0_0
  6
CONTINUOUS
 62
    7
 10
67.875593102399989
 20
216.1411913661
 11
67.821009287799995
 21
216.08969500110001
  0
LINE
  8
_0-0_0
  6
CONTINUOUS
 62
    7
 10
67.821009287799995
 20
216.08969500110001
 11
67.764801384599991
 21
216.0542249401
  0
LINE
  8
_0-0_0
  6
CONTINUOUS
 62
    7
 10
67.764801384599991
 20
216.0542249401
 11
67.688787551399997
 21
216.0230811767
  0
LINE
  8
_0-0_0
  6
CONTINUOUS
 62
    7
 10
67.688787551399997
 20
216.0230811767
 11
67.612189318099979
 21
216.00640109070002
  0
LINE
  8
_0-0_0
  6
CONTINUOUS
 62
    7
 10
67.612189318099979
 20
216.00640109070002
 11
67.535379454400015
 21
216.00120674610002
  0
LINE
  8
_0-0_0
  6
CONTINUOUS
 62
    7
 10
67.535381949299989
 20
216.00120674610002
 11
52.755379454399986
 21
216.00120674610002
  0
LINE
  8
_0-0_0
  6
CONTINUOUS
 62
    7
 10
67.535381949200001
 20
216.70120674610001
 11
52.755379454399986
 21
216.70120674610001
  0
LINE
  8
_0-0_0
  6
CONTINUOUS
 62
    7
 10
37.975406417399995
 20
216.00120674610002
 11
52.755379454399986
 21
216.00120674610002
  0
LINE
  8
_0-0_0
  6
CONTINUOUS
 62
    7
 10
37.975379454399985
 20
216.70120674610001
 11
37.898571806399985
 21
216.69601146240001
  0
LINE
  8
_0-0_0
  6
CONTINUOUS
 62
    7
 10
37.898571806399985
 20
216.69601146240001
 11
37.821975544200001
 21
216.6793385094
  0
LINE
  8
_0-0_0
  6
CONTINUOUS
 62
    7
 10
37.821975544200001
 20
216.6793385094
 11
37.745964158800007
 21
216.64819149070001
  0
LINE
  8
_0-0_0
  6
CONTINUOUS
 62
    7
 10
37.745964158800007
 20
216.64819149070001
 11
37.689771738699989
 21
216.612550594
  0
LINE
  8
_0-0_0
  6
CONTINUOUS
 62
    7
 10
37.689771738699989
 20
216.612550594
 11
37.635168881699997
 21
216.56122730800001
  0
LINE
  8
_0-0_0
  6
CONTINUOUS
 62
    7
 10
37.635168881699997
 20
216.56122730800001
 11
37.609070397399989
 21
216.5270728399
  0
LINE
  8
_0-0_0
  6
CONTINUOUS
 62
    7
 10
37.609070397399989
 20
216.5270728399
 11
37.584817406199988
 21
216.48362520470002
  0
LINE
  8
_0-0_0
  6
CONTINUOUS
 62
    7
 10
37.584817406199988
 20
216.48362520470002
 11
37.573946650399989
 21
216.4571579338
  0
LINE
  8
_0-0_0
  6
CONTINUOUS
 62
    7
 10
37.573946650399989
 20
216.4571579338
 11
37.564644805299992
 21
216.426390134
  0
LINE
  8
_0-0_0
  6
CONTINUOUS
 62
    7
 10
37.564644805299992
 20
216.426390134
 11
37.557936109499991
 21
216.39078008590002
  0
LINE
  8
_0-0_0
  6
CONTINUOUS
 62
    7
 10
37.557936109499991
 20
216.39078008590002
 11
37.555379455099995
 21
216.3512272113
  0
LINE
  8
_0-0_0
  6
CONTINUOUS
 62
    7
 10
37.555379455099995
 20
216.3512272113
 11
37.557931402500003
 21
216.3116726481
  0
LINE
  8
_0-0_0
  6
CONTINUOUS
 62
    7
 10
37.557931402500003
 20
216.3116726481
 11
37.564637356899993
 21
216.2760557215
  0
LINE
  8
_0-0_0
  6
CONTINUOUS
 62
    7
 10
37.564637356899993
 20
216.2760557215
 11
37.573938859399988
 21
216.24528728370001
  0
LINE
  8
_0-0_0
  6
CONTINUOUS
 62
    7
 10
37.573938859399988
 20
216.24528728370001
 11
37.584807470899989
 21
216.2188102961
  0
LINE
  8
_0-0_0
  6
CONTINUOUS
 62
    7
 10
37.584807470899989
 20
216.2188102961
 11
37.609090877999989
 21
216.17549205580002
  0
LINE
  8
_0-0_0
  6
CONTINUOUS
 62
    7
 10
37.609090877999989
 20
216.17549205580002
 11
37.635165806299995
 21
216.1411913661
  0
LINE
  8
_0-0_0
  6
CONTINUOUS
 62
    7
 10
37.635165806299995
 20
216.1411913661
 11
37.689749620899988
 21
216.08969500110001
  0
LINE
  8
_0-0_0
  6
CONTINUOUS
 62
    7
 10
37.689749620899988
 20
216.08969500110001
 11
37.74595752419998
 21
216.0542249401
  0
LINE
  8
_0-0_0
  6
CONTINUOUS
 62
    7
 10
37.74595752419998
 20
216.0542249401
 11
37.821971357299986
 21
216.0230811767
  0
LINE
  8
_0-0_0
  6
CONTINUOUS
 62
    7
 10
37.821971357299986
 20
216.0230811767
 11
37.898569590600005
 21
216.00640109070002
  0
LINE
  8
_0-0_0
  6
CONTINUOUS
 62
    7
 10
37.898569590600005
 20
216.00640109070002
 11
37.975379454399985
 21
216.00120674610002
  0
LINE
  8
_0-0_0
  6
CONTINUOUS
 62
    7
 10
37.975419912299998
 20
216.70120674610001
 11
52.755379454399986
 21
216.70120674610001
  0
LINE
  8
_0-0_0
  6
CONTINUOUS
 62
    7
 10
37.955379454400003
 20
216.70120674610001
 11
37.975379454399985
 21
216.70120674610001
  0
LINE
  8
_0-0_0
  6
CONTINUOUS
 62
    7
 10
37.975379454399985
 20
216.00120674610002
 11
37.955379454400003
 21
216.00120674610002
  0
ARC
  8
_0-0_0
  6
CONTINUOUS
 62
    7
 10
37.902802799600011
 20
213.9508982024
 40
2.75081104227558
 50
88.904830678699994
 51
104.3843312823
  0
ARC
  8
_0-0_0
  6
CONTINUOUS
 62
    7
 10
37.903664841899996
 20
218.76429210160001
 40
2.7635692650914589
 50
255.65756774569996
 51
271.07223728000002
  0
LINE
  8
_0-0_0
  6
CONTINUOUS
 62
    7
 10
67.555379454399997
 20
216.00120674610002
 11
67.535381949299989
 21
216.00120674610002
  0
LINE
  8
_0-0_0
  6
CONTINUOUS
 62
    7
 10
67.555379454399997
 20
216.70120674610001
 11
67.535381949200001
 21
216.70120674610001
  0
ARC
  8
_0-0_0
  6
CONTINUOUS
 62
    7
 10
67.607930029599999
 20
213.95057470420002
 40
2.7511339831681889
 50
75.612018769499997
 51
91.094497511599997
  0
ARC
  8
_0-0_0
  6
CONTINUOUS
 62
    7
 10
67.607117998399985
 20
218.7639931855
 40
2.763270849258765
 50
268.92715061029992
 51
284.33916712949997
  0
LINE
  8
_0-0_0
  6
CONTINUOUS
 62
    7
 10
41.002624148699994
 20
215.36120674610001
 11
41.002624148699994
 21
216.00120674610002
  0
LINE
  8
_0-0_0
  6
CONTINUOUS
 62
    7
 10
64.508134760100006
 20
215.36120674610001
 11
64.508134760100006
 21
216.00120674610002
  0
LINE
  8
_0-0_0
  6
CONTINUOUS
 62
    7
 10
41.002624148699994
 20
215.36120674610001
 11
64.508134760100006
 21
215.36120674610001
  0
POINT
  8
_0-0_0
 62
    7
 10
36.855519598599983
 20
216.345642317
  0
POINT
  8
_0-0_0
 62
    7
 10
68.655242215899989
 20
216.345642317
  0
INSERT
  2
-007-_D_6
  8
_0-0_0
 10
-5.9000000000000057
 20
8.8000000000000114
 41
1
 42
1
 50
0
  0
LINE
  8
_0-0_0
  6
CONTINUOUS
 62
    7
 10
67.955378169999989
 20
253.2613994413
 11
52.755379454399986
 21
253.2613994413
  0
LINE
  8
_0-0_0
  6
CONTINUOUS
 62
    7
 10
52.755379454399986
 20
253.2613994413
 11
37.555380738800011
 21
253.2613994413
  0
LINE
  8
_0-0_0
  6
CONTINUOUS
 62
    7
 10
36.855379454400008
 20
252.5613981569
 11
36.855379454400008
 21
248.06139944130001
  0
LINE
  8
_0-0_0
  6
CONTINUOUS
 62
    7
 10
68.655379454399991
 20
248.06139944130001
 11
68.655379454399991
 21
252.5613981569
  0
LINE
  8
_0-0_0
  6
CONTINUOUS
 62
    7
 10
36.855379454400008
 20
248.06139944130001
 11
36.855379454400008
 21
243.56140072570003
  0
LINE
  8
_0-0_0
  6
CONTINUOUS
 62
    7
 10
37.555380738800011
 20
242.86139944130002
 11
52.755379454399986
 21
242.86139944130002
  0
LINE
  8
_0-0_0
  6
CONTINUOUS
 62
    7
 10
52.755379454399986
 20
242.86139944130002
 11
67.955378169999989
 21
242.86139944130002
  0
ARC
  8
_0-0_0
  6
CONTINUOUS
 62
    7
 10
67.955517385500002
 20
252.5615373725
 40
0.699862082425306
 50
359.98870795670001
 51
90.011292043299974
  0
ARC
  8
_0-0_0
  6
CONTINUOUS
 62
    7
 10
37.555241523199982
 20
243.56126151020001
 40
0.6998620824252207
 50
179.98870795670001
 51
270.01129204329999
  0
ARC
  8
_0-0_0
  6
CONTINUOUS
 62
    7
 10
37.555241523199982
 20
252.5615373725
 40
0.699862082425306
 50
89.988707956699997
 51
180.01129204329999
  0
ARC
  8
_0-0_0
  6
CONTINUOUS
 62
    7
 10
67.955517385500002
 20
243.56126151020001
 40
0.6998620824252918
 50
269.98870795670001
 51
0.0112920432999759
  0
INSERT
  2
-008-_D_7
  8
_0-0_0
 10
-5.9000000000000057
 20
8.8000000000000114
 41
1
 42
1
 50
0
  0
ARC
  8
_0-0_0
  6
CONTINUOUS
 62
    7
 10
106.09943260279999
 20
212.52120674610001
 40
0.0200000000000386
 50
270
 51
0
  0
ARC
  8
_0-0_0
  6
CONTINUOUS
 62
    7
 10
105.81943260279999
 20
212.52120674610001
 40
0.0200000000000386
 50
180
 51
270
  0
LINE
  8
_0-0_0
  6
CONTINUOUS
 62
    7
 10
106.11943260279999
 20
212.52120674610001
 11
106.11943260279999
 21
212.64120674610001
  0
LINE
  8
_0-0_0
  6
CONTINUOUS
 62
    7
 10
105.7994326028
 20
212.64120674610001
 11
105.7994326028
 21
212.52120674610001
  0
ARC
  8
_0-0_0
  6
CONTINUOUS
 62
    7
 10
99.299432602799996
 20
212.52120674610001
 40
0.0200000000000386
 50
270
 51
0
  0
ARC
  8
_0-0_0
  6
CONTINUOUS
 62
    7
 10
99.019432602799995
 20
212.52120674610001
 40
0.0200000000000386
 50
180
 51
270
  0
LINE
  8
_0-0_0
  6
CONTINUOUS
 62
    7
 10
99.319432602799992
 20
212.52120674610001
 11
99.319432602799992
 21
212.64120674610001
  0
LINE
  8
_0-0_0
  6
CONTINUOUS
 62
    7
 10
98.999432602799999
 20
212.64120674610001
 11
98.999432602799999
 21
212.52120674610001
  0
LINE
  8
_0-0_0
  6
CONTINUOUS
 62
    7
 10
99.318432602799987
 20
212.64120674610001
 11
99.318432602799987
 21
215.36120674610001
  0
LINE
  8
_0-0_0
  6
CONTINUOUS
 62
    7
 10
99.000432602799989
 20
216.00120674610002
 11
99.000432602799989
 21
212.64120674610001
  0
LINE
  8
_0-0_0
  6
CONTINUOUS
 62
    7
 10
107.39549017889999
 20
216.08625622420001
 11
107.49560513889999
 21
216.119287754
  0
LINE
  8
_0-0_0
  6
CONTINUOUS
 62
    7
 10
107.49560513889999
 20
216.119287754
 11
107.57756393769999
 21
216.1560728101
  0
LINE
  8
_0-0_0
  6
CONTINUOUS
 62
    7
 10
107.57756393769999
 20
216.1560728101
 11
107.64214291019999
 21
216.195744222
  0
LINE
  8
_0-0_0
  6
CONTINUOUS
 62
    7
 10
107.64214291019999
 20
216.195744222
 11
107.6799049805
 21
216.22683514420001
  0
LINE
  8
_0-0_0
  6
CONTINUOUS
 62
    7
 10
107.6799049805
 20
216.22683514420001
 11
107.7091477493
 21
216.25829575340001
  0
LINE
  8
_0-0_0
  6
CONTINUOUS
 62
    7
 10
107.7091477493
 20
216.25829575340001
 11
107.73063877819999
 21
216.29205048540001
  0
LINE
  8
_0-0_0
  6
CONTINUOUS
 62
    7
 10
107.73063877819999
 20
216.29205048540001
 11
107.7428343103
 21
216.32797515270002
  0
LINE
  8
_0-0_0
  6
CONTINUOUS
 62
    7
 10
107.7428343103
 20
216.32797515270002
 11
107.7445439472
 21
216.36278769660001
  0
LINE
  8
_0-0_0
  6
CONTINUOUS
 62
    7
 10
107.7445439472
 20
216.36278769660001
 11
107.73841496979999
 21
216.3914980493
  0
LINE
  8
_0-0_0
  6
CONTINUOUS
 62
    7
 10
107.73841496979999
 20
216.3914980493
 11
107.73336619289999
 21
216.40481000600002
  0
LINE
  8
_0-0_0
  6
CONTINUOUS
 62
    7
 10
107.73336619289999
 20
216.40481000600002
 11
107.7255529614
 21
216.4210554066
  0
LINE
  8
_0-0_0
  6
CONTINUOUS
 62
    7
 10
107.7255529614
 20
216.4210554066
 11
107.698534204
 21
216.459607003
  0
LINE
  8
_0-0_0
  6
CONTINUOUS
 62
    7
 10
107.698534204
 20
216.459607003
 11
107.65308152599999
 21
216.50142427750001
  0
LINE
  8
_0-0_0
  6
CONTINUOUS
 62
    7
 10
107.65308152599999
 20
216.50142427750001
 11
107.58749358839999
 21
216.54260501920001
  0
LINE
  8
_0-0_0
  6
CONTINUOUS
 62
    7
 10
107.58749358839999
 20
216.54260501920001
 11
107.50137204249999
 21
216.58117719830003
  0
LINE
  8
_0-0_0
  6
CONTINUOUS
 62
    7
 10
107.50137204249999
 20
216.58117719830003
 11
107.39538111649999
 21
216.61601078520002
  0
LINE
  8
_0-0_0
  6
CONTINUOUS
 62
    7
 10
97.723484088999996
 20
216.61601078520002
 11
97.646649398699992
 21
216.59170983700002
  0
LINE
  8
_0-0_0
  6
CONTINUOUS
 62
    7
 10
97.646649398699992
 20
216.59170983700002
 11
97.580071798299997
 21
216.56511785260003
  0
LINE
  8
_0-0_0
  6
CONTINUOUS
 62
    7
 10
97.580071798299997
 20
216.56511785260003
 11
97.523542668199994
 21
216.536788054
  0
LINE
  8
_0-0_0
  6
CONTINUOUS
 62
    7
 10
97.523542668199994
 20
216.536788054
 11
97.476703417899998
 21
216.50675313740001
  0
LINE
  8
_0-0_0
  6
CONTINUOUS
 62
    7
 10
97.476703417899998
 20
216.50675313740001
 11
97.438978968599997
 21
216.47559130330001
  0
LINE
  8
_0-0_0
  6
CONTINUOUS
 62
    7
 10
97.438978968599997
 20
216.47559130330001
 11
97.40972827729999
 21
216.44414179630002
  0
LINE
  8
_0-0_0
  6
CONTINUOUS
 62
    7
 10
97.40972827729999
 20
216.44414179630002
 11
97.3882372984
 21
216.4103858663
  0
LINE
  8
_0-0_0
  6
CONTINUOUS
 62
    7
 10
97.3882372984
 20
216.4103858663
 11
97.376035629899988
 21
216.3744656131
  0
LINE
  8
_0-0_0
  6
CONTINUOUS
 62
    7
 10
97.376035629899988
 20
216.3744656131
 11
97.374318596599991
 21
216.3396543355
  0
LINE
  8
_0-0_0
  6
CONTINUOUS
 62
    7
 10
97.374318596599991
 20
216.3396543355
 11
97.380441146799996
 21
216.31094555230001
  0
LINE
  8
_0-0_0
  6
CONTINUOUS
 62
    7
 10
97.380441146799996
 20
216.31094555230001
 11
97.385487579599996
 21
216.29762979720002
  0
LINE
  8
_0-0_0
  6
CONTINUOUS
 62
    7
 10
97.385487579599996
 20
216.29762979720002
 11
97.3932990327
 21
216.28138092750001
  0
LINE
  8
_0-0_0
  6
CONTINUOUS
 62
    7
 10
97.3932990327
 20
216.28138092750001
 11
97.420315455199997
 21
216.2428305116
  0
LINE
  8
_0-0_0
  6
CONTINUOUS
 62
    7
 10
97.420315455199997
 20
216.2428305116
 11
97.465785573699989
 21
216.20105427980002
  0
LINE
  8
_0-0_0
  6
CONTINUOUS
 62
    7
 10
97.465785573699989
 20
216.20105427980002
 11
97.531382586799992
 21
216.15990121930002
  0
LINE
  8
_0-0_0
  6
CONTINUOUS
 62
    7
 10
97.531382586799992
 20
216.15990121930002
 11
97.617441170399999
 21
216.1212073266
  0
LINE
  8
_0-0_0
  6
CONTINUOUS
 62
    7
 10
97.617441170399999
 20
216.1212073266
 11
97.723375026699998
 21
216.08625622420001
  0
LINE
  8
_0-0_0
  6
CONTINUOUS
 62
    7
 10
106.1184326028
 20
212.64120674610001
 11
106.1184326028
 21
216.00120674610002
  0
LINE
  8
_0-0_0
  6
CONTINUOUS
 62
    7
 10
105.8004326028
 20
215.36120674610001
 11
105.8004326028
 21
212.64120674610001
  0
LINE
  8
_0-0_0
  6
CONTINUOUS
 62
    7
 10
106.09943260279999
 20
212.50120674610002
 11
105.81943260279999
 21
212.50120674610002
  0
LINE
  8
_0-0_0
  6
CONTINUOUS
 62
    7
 10
106.11943260279999
 20
212.64120674610001
 11
105.7994326028
 21
212.64120674610001
  0
LINE
  8
_0-0_0
  6
CONTINUOUS
 62
    7
 10
99.033043523399996
 20
212.50120674610002
 11
99.019432602799995
 21
212.50120674610002
  0
LINE
  8
_0-0_0
  6
CONTINUOUS
 62
    7
 10
99.299432602799996
 20
212.50120674610002
 11
99.033043523399996
 21
212.50120674610002
  0
LINE
  8
_0-0_0
  6
CONTINUOUS
 62
    7
 10
99.014987940599994
 20
212.64120674610001
 11
98.999432602799999
 21
212.64120674610001
  0
LINE
  8
_0-0_0
  6
CONTINUOUS
 62
    7
 10
99.319432602799992
 20
212.64120674610001
 11
99.014987940599994
 21
212.64120674610001
  0
LINE
  8
_0-0_0
  6
CONTINUOUS
 62
    7
 10
105.81218790849999
 20
216.00120674610002
 11
105.81218790849999
 21
215.36120674610001
  0
LINE
  8
_0-0_0
  6
CONTINUOUS
 62
    7
 10
105.81218790849999
 20
215.36120674610001
 11
99.306677297099995
 21
215.36120674610001
  0
LINE
  8
_0-0_0
  6
CONTINUOUS
 62
    7
 10
99.306677297099995
 20
216.00120674610002
 11
99.306677297099995
 21
215.36120674610001
  0
LINE
  8
_0-0_0
  6
CONTINUOUS
 62
    7
 10
102.5594326028
 20
216.00120674610002
 11
106.6394326028
 21
216.00120674610002
  0
LINE
  8
_0-0_0
  6
CONTINUOUS
 62
    7
 10
102.5594326028
 20
216.70120674610001
 11
106.6394326028
 21
216.70120674610001
  0
LINE
  8
_0-0_0
  6
CONTINUOUS
 62
    7
 10
106.6394326028
 20
216.70120674610001
 11
106.7162402507
 21
216.69601146240001
  0
LINE
  8
_0-0_0
  6
CONTINUOUS
 62
    7
 10
106.7162402507
 20
216.69601146240001
 11
106.7928365129
 21
216.6793385094
  0
LINE
  8
_0-0_0
  6
CONTINUOUS
 62
    7
 10
106.7928365129
 20
216.6793385094
 11
106.86884789829999
 21
216.64819149070001
  0
LINE
  8
_0-0_0
  6
CONTINUOUS
 62
    7
 10
106.86884789829999
 20
216.64819149070001
 11
106.9250403185
 21
216.612550594
  0
LINE
  8
_0-0_0
  6
CONTINUOUS
 62
    7
 10
106.9250403185
 20
216.612550594
 11
106.9796431754
 21
216.56122730800001
  0
LINE
  8
_0-0_0
  6
CONTINUOUS
 62
    7
 10
106.9796431754
 20
216.56122730800001
 11
107.00574165969999
 21
216.5270728399
  0
LINE
  8
_0-0_0
  6
CONTINUOUS
 62
    7
 10
107.00574165969999
 20
216.5270728399
 11
107.02999465089999
 21
216.48362520470002
  0
LINE
  8
_0-0_0
  6
CONTINUOUS
 62
    7
 10
107.02999465089999
 20
216.48362520470002
 11
107.04086540669999
 21
216.4571579338
  0
LINE
  8
_0-0_0
  6
CONTINUOUS
 62
    7
 10
107.04086540669999
 20
216.4571579338
 11
107.05016725179999
 21
216.426390134
  0
LINE
  8
_0-0_0
  6
CONTINUOUS
 62
    7
 10
107.05016725179999
 20
216.426390134
 11
107.05687594759999
 21
216.39078008590002
  0
LINE
  8
_0-0_0
  6
CONTINUOUS
 62
    7
 10
107.05687594759999
 20
216.39078008590002
 11
107.059432602
 21
216.3512272113
  0
LINE
  8
_0-0_0
  6
CONTINUOUS
 62
    7
 10
107.059432602
 20
216.3512272113
 11
107.05688065459999
 21
216.3116726481
  0
LINE
  8
_0-0_0
  6
CONTINUOUS
 62
    7
 10
107.05688065459999
 20
216.3116726481
 11
107.05017470019999
 21
216.2760557215
  0
LINE
  8
_0-0_0
  6
CONTINUOUS
 62
    7
 10
107.05017470019999
 20
216.2760557215
 11
107.0408731978
 21
216.24528728370001
  0
LINE
  8
_0-0_0
  6
CONTINUOUS
 62
    7
 10
107.0408731978
 20
216.24528728370001
 11
107.03000458619999
 21
216.2188102961
  0
LINE
  8
_0-0_0
  6
CONTINUOUS
 62
    7
 10
107.03000458619999
 20
216.2188102961
 11
107.00572117909999
 21
216.17549205580002
  0
LINE
  8
_0-0_0
  6
CONTINUOUS
 62
    7
 10
107.00572117909999
 20
216.17549205580002
 11
106.97964625079999
 21
216.1411913661
  0
LINE
  8
_0-0_0
  6
CONTINUOUS
 62
    7
 10
106.97964625079999
 20
216.1411913661
 11
106.92506243619999
 21
216.08969500110001
  0
LINE
  8
_0-0_0
  6
CONTINUOUS
 62
    7
 10
106.92506243619999
 20
216.08969500110001
 11
106.86885453299999
 21
216.0542249401
  0
LINE
  8
_0-0_0
  6
CONTINUOUS
 62
    7
 10
106.86885453299999
 20
216.0542249401
 11
106.7928406998
 21
216.0230811767
  0
LINE
  8
_0-0_0
  6
CONTINUOUS
 62
    7
 10
106.7928406998
 20
216.0230811767
 11
106.71624246649999
 21
216.00640109070002
  0
LINE
  8
_0-0_0
  6
CONTINUOUS
 62
    7
 10
106.71624246649999
 20
216.00640109070002
 11
106.6394326028
 21
216.00120674610002
  0
LINE
  8
_0-0_0
  6
CONTINUOUS
 62
    7
 10
102.5594326028
 20
216.70120674610001
 11
98.479432602799989
 21
216.70120674610001
  0
LINE
  8
_0-0_0
  6
CONTINUOUS
 62
    7
 10
102.5594326028
 20
216.00120674610002
 11
98.479432602799989
 21
216.00120674610002
  0
LINE
  8
_0-0_0
  6
CONTINUOUS
 62
    7
 10
98.479432602799989
 20
216.70120674610001
 11
98.40262495479999
 21
216.69601146240001
  0
LINE
  8
_0-0_0
  6
CONTINUOUS
 62
    7
 10
98.40262495479999
 20
216.69601146240001
 11
98.326028692599991
 21
216.6793385094
  0
LINE
  8
_0-0_0
  6
CONTINUOUS
 62
    7
 10
98.326028692599991
 20
216.6793385094
 11
98.250017307199997
 21
216.64819149070001
  0
LINE
  8
_0-0_0
  6
CONTINUOUS
 62
    7
 10
98.250017307199997
 20
216.64819149070001
 11
98.193824886999991
 21
216.612550594
  0
LINE
  8
_0-0_0
  6
CONTINUOUS
 62
    7
 10
98.193824886999991
 20
216.612550594
 11
98.139222030100001
 21
216.56122730800001
  0
LINE
  8
_0-0_0
  6
CONTINUOUS
 62
    7
 10
98.139222030100001
 20
216.56122730800001
 11
98.113123545799994
 21
216.5270728399
  0
LINE
  8
_0-0_0
  6
CONTINUOUS
 62
    7
 10
98.113123545799994
 20
216.5270728399
 11
98.088870554599993
 21
216.48362520470002
  0
LINE
  8
_0-0_0
  6
CONTINUOUS
 62
    7
 10
98.088870554599993
 20
216.48362520470002
 11
98.077999798799993
 21
216.4571579338
  0
LINE
  8
_0-0_0
  6
CONTINUOUS
 62
    7
 10
98.077999798799993
 20
216.4571579338
 11
98.068697953699996
 21
216.426390134
  0
LINE
  8
_0-0_0
  6
CONTINUOUS
 62
    7
 10
98.068697953699996
 20
216.426390134
 11
98.061989257899995
 21
216.39078008590002
  0
LINE
  8
_0-0_0
  6
CONTINUOUS
 62
    7
 10
98.061989257899995
 20
216.39078008590002
 11
98.059432603499999
 21
216.3512272113
  0
LINE
  8
_0-0_0
  6
CONTINUOUS
 62
    7
 10
98.059432603499999
 20
216.3512272113
 11
98.061984550899993
 21
216.3116726481
  0
LINE
  8
_0-0_0
  6
CONTINUOUS
 62
    7
 10
98.061984550899993
 20
216.3116726481
 11
98.068690505299998
 21
216.2760557215
  0
LINE
  8
_0-0_0
  6
CONTINUOUS
 62
    7
 10
98.068690505299998
 20
216.2760557215
 11
98.077992007799992
 21
216.24528728370001
  0
LINE
  8
_0-0_0
  6
CONTINUOUS
 62
    7
 10
98.077992007799992
 20
216.24528728370001
 11
98.088860619299993
 21
216.2188102961
  0
LINE
  8
_0-0_0
  6
CONTINUOUS
 62
    7
 10
98.088860619299993
 20
216.2188102961
 11
98.113144026399993
 21
216.17549205580002
  0
LINE
  8
_0-0_0
  6
CONTINUOUS
 62
    7
 10
98.113144026399993
 20
216.17549205580002
 11
98.139218954699999
 21
216.1411913661
  0
LINE
  8
_0-0_0
  6
CONTINUOUS
 62
    7
 10
98.139218954699999
 20
216.1411913661
 11
98.193802769299992
 21
216.08969500110001
  0
LINE
  8
_0-0_0
  6
CONTINUOUS
 62
    7
 10
98.193802769299992
 20
216.08969500110001
 11
98.250010672599998
 21
216.0542249401
  0
LINE
  8
_0-0_0
  6
CONTINUOUS
 62
    7
 10
98.250010672599998
 20
216.0542249401
 11
98.326024505699991
 21
216.0230811767
  0
LINE
  8
_0-0_0
  6
CONTINUOUS
 62
    7
 10
98.326024505699991
 20
216.0230811767
 11
98.402622738999995
 21
216.00640109070002
  0
LINE
  8
_0-0_0
  6
CONTINUOUS
 62
    7
 10
98.402622738999995
 20
216.00640109070002
 11
98.479432602799989
 21
216.00120674610002
  0
LINE
  8
_0-0_0
  6
CONTINUOUS
 62
    7
 10
106.6394326028
 20
216.70120674610001
 11
106.6594326028
 21
216.70120674610001
  0
ARC
  8
_0-0_0
  6
CONTINUOUS
 62
    7
 10
106.711983178
 20
213.95057470420002
 40
2.751133983173101
 50
75.612018769499997
 51
91.094497511599997
  0
ARC
  8
_0-0_0
  6
CONTINUOUS
 62
    7
 10
106.7111711468
 20
218.7639931855
 40
2.7632708492542251
 50
268.92715061029992
 51
284.33916712949997
  0
LINE
  8
_0-0_0
  6
CONTINUOUS
 62
    7
 10
106.6394326028
 20
216.00120674610002
 11
106.6594326028
 21
216.00120674610002
  0
ARC
  8
_0-0_0
  6
CONTINUOUS
 62
    7
 10
98.406855948
 20
213.9508982024
 40
2.7508110422796399
 50
88.90483067880001
 51
104.3843312823
  0
ARC
  8
_0-0_0
  6
CONTINUOUS
 62
    7
 10
98.4077179903
 20
218.76429210160001
 40
2.763569265086693
 50
255.65756774580001
 51
271.07223728000002
  0
LINE
  8
_0-0_0
  6
CONTINUOUS
 62
    7
 10
98.479432602799989
 20
216.70120674610001
 11
98.459432602799993
 21
216.70120674610001
  0
LINE
  8
_0-0_0
  6
CONTINUOUS
 62
    7
 10
98.479432602799989
 20
216.00120674610002
 11
98.459432602799993
 21
216.00120674610002
  0
INSERT
  2
-009-_D_8
  8
_0-0_0
 10
-5.9000000000000057
 20
8.8000000000000114
 41
1
 42
1
 50
0
  0
LINE
  8
_0-0_0
  6
CONTINUOUS
 62
    7
 10
177.65044647549999
 20
211.32120674610002
 11
177.65044647549999
 21
211.44120674610002
  0
LINE
  8
_0-0_0
  6
CONTINUOUS
 62
    7
 10
177.3304464755
 20
211.44120674610002
 11
177.3304464755
 21
211.32120674610002
  0
ARC
  8
_0-0_0
  6
CONTINUOUS
 62
    7
 10
177.63044647550001
 20
211.32120674610002
 40
0.0199999999999818
 50
270
 51
0
  0
ARC
  8
_0-0_0
  6
CONTINUOUS
 62
    7
 10
177.35044647550001
 20
211.32120674610002
 40
0.0199999999999818
 50
180
 51
269.99999999990001
  0
LINE
  8
_0-0_0
  6
CONTINUOUS
 62
    7
 10
201.4504464755
 20
211.32120674610002
 11
201.4504464755
 21
211.44120674610002
  0
LINE
  8
_0-0_0
  6
CONTINUOUS
 62
    7
 10
201.13044647550001
 20
211.44120674610002
 11
201.13044647550001
 21
211.32120674610002
  0
ARC
  8
_0-0_0
  6
CONTINUOUS
 62
    7
 10
201.43044647549999
 20
211.32120674610002
 40
0.0200000000000102
 50
270.00000000009999
 51
0.0000000000000127
  0
ARC
  8
_0-0_0
  6
CONTINUOUS
 62
    7
 10
201.15044647549999
 20
211.32120674610002
 40
0.0199999999999818
 50
180
 51
270
  0
LINE
  8
_0-0_0
  6
CONTINUOUS
 62
    7
 10
201.4494464755
 20
211.44120674610002
 11
201.4494464755
 21
217.20120674610001
  0
LINE
  8
_0-0_0
  6
CONTINUOUS
 62
    7
 10
201.13144647549998
 20
216.5612067461
 11
201.13144647549998
 21
211.44120674610002
  0
LINE
  8
_0-0_0
  6
CONTINUOUS
 62
    7
 10
173.85449796180001
 20
217.81601078520001
 11
173.7776632714
 21
217.79170983700001
  0
LINE
  8
_0-0_0
  6
CONTINUOUS
 62
    7
 10
173.7776632714
 20
217.79170983700001
 11
173.71108567100001
 21
217.76511785260001
  0
LINE
  8
_0-0_0
  6
CONTINUOUS
 62
    7
 10
173.71108567100001
 20
217.76511785260001
 11
173.65455654089999
 21
217.73678805400002
  0
LINE
  8
_0-0_0
  6
CONTINUOUS
 62
    7
 10
173.65455654089999
 20
217.73678805400002
 11
173.60771729059999
 21
217.7067531374
  0
LINE
  8
_0-0_0
  6
CONTINUOUS
 62
    7
 10
173.60771729059999
 20
217.7067531374
 11
173.56999284139999
 21
217.67559130330002
  0
LINE
  8
_0-0_0
  6
CONTINUOUS
 62
    7
 10
173.56999284139999
 20
217.67559130330002
 11
173.54074215
 21
217.6441417963
  0
LINE
  8
_0-0_0
  6
CONTINUOUS
 62
    7
 10
173.54074215
 20
217.6441417963
 11
173.5192511711
 21
217.61038586630002
  0
LINE
  8
_0-0_0
  6
CONTINUOUS
 62
    7
 10
173.5192511711
 20
217.61038586630002
 11
173.50704950259998
 21
217.57446561310002
  0
LINE
  8
_0-0_0
  6
CONTINUOUS
 62
    7
 10
173.50704950259998
 20
217.57446561310002
 11
173.5053324694
 21
217.53965433550002
  0
LINE
  8
_0-0_0
  6
CONTINUOUS
 62
    7
 10
173.5053324694
 20
217.53965433550002
 11
173.5114550195
 21
217.5109455523
  0
LINE
  8
_0-0_0
  6
CONTINUOUS
 62
    7
 10
173.5114550195
 20
217.5109455523
 11
173.51650145229999
 21
217.49762979720001
  0
LINE
  8
_0-0_0
  6
CONTINUOUS
 62
    7
 10
173.51650145229999
 20
217.49762979720001
 11
173.52431290549998
 21
217.4813809275
  0
LINE
  8
_0-0_0
  6
CONTINUOUS
 62
    7
 10
173.52431290549998
 20
217.4813809275
 11
173.55132932800001
 21
217.44283051160002
  0
LINE
  8
_0-0_0
  6
CONTINUOUS
 62
    7
 10
173.55132932800001
 20
217.44283051160002
 11
173.59679944639998
 21
217.40105427980001
  0
LINE
  8
_0-0_0
  6
CONTINUOUS
 62
    7
 10
173.59679944639998
 20
217.40105427980001
 11
173.6623964595
 21
217.35990121930001
  0
LINE
  8
_0-0_0
  6
CONTINUOUS
 62
    7
 10
173.6623964595
 20
217.35990121930001
 11
173.74845504319998
 21
217.32120732660002
  0
LINE
  8
_0-0_0
  6
CONTINUOUS
 62
    7
 10
173.74845504319998
 20
217.32120732660002
 11
173.85438889939999
 21
217.2862562242
  0
LINE
  8
_0-0_0
  6
CONTINUOUS
 62
    7
 10
204.92650405160001
 20
217.2862562242
 11
205.02661901159999
 21
217.31928775400002
  0
LINE
  8
_0-0_0
  6
CONTINUOUS
 62
    7
 10
205.02661901159999
 20
217.31928775400002
 11
205.10857781039999
 21
217.35607281010002
  0
LINE
  8
_0-0_0
  6
CONTINUOUS
 62
    7
 10
205.10857781039999
 20
217.35607281010002
 11
205.17315678290001
 21
217.39574422200002
  0
LINE
  8
_0-0_0
  6
CONTINUOUS
 62
    7
 10
205.17315678290001
 20
217.39574422200002
 11
205.21091885319998
 21
217.4268351442
  0
LINE
  8
_0-0_0
  6
CONTINUOUS
 62
    7
 10
205.21091885319998
 20
217.4268351442
 11
205.24016162199999
 21
217.45829575340002
  0
LINE
  8
_0-0_0
  6
CONTINUOUS
 62
    7
 10
205.24016162199999
 20
217.45829575340002
 11
205.26165265099999
 21
217.4920504854
  0
LINE
  8
_0-0_0
  6
CONTINUOUS
 62
    7
 10
205.26165265099999
 20
217.4920504854
 11
205.2738481831
 21
217.52797515270001
  0
LINE
  8
_0-0_0
  6
CONTINUOUS
 62
    7
 10
205.2738481831
 20
217.52797515270001
 11
205.2755578199
 21
217.5627876966
  0
LINE
  8
_0-0_0
  6
CONTINUOUS
 62
    7
 10
205.2755578199
 20
217.5627876966
 11
205.26942884249999
 21
217.59149804930001
  0
LINE
  8
_0-0_0
  6
CONTINUOUS
 62
    7
 10
205.26942884249999
 20
217.59149804930001
 11
205.26438006559999
 21
217.60481000600001
  0
LINE
  8
_0-0_0
  6
CONTINUOUS
 62
    7
 10
205.26438006559999
 20
217.60481000600001
 11
205.2565668341
 21
217.62105540660002
  0
LINE
  8
_0-0_0
  6
CONTINUOUS
 62
    7
 10
205.2565668341
 20
217.62105540660002
 11
205.22954807669998
 21
217.65960700300002
  0
LINE
  8
_0-0_0
  6
CONTINUOUS
 62
    7
 10
205.22954807669998
 20
217.65960700300002
 11
205.18409539869998
 21
217.70142427750002
  0
LINE
  8
_0-0_0
  6
CONTINUOUS
 62
    7
 10
205.18409539869998
 20
217.70142427750002
 11
205.11850746119998
 21
217.7426050192
  0
LINE
  8
_0-0_0
  6
CONTINUOUS
 62
    7
 10
205.11850746119998
 20
217.7426050192
 11
205.0323859152
 21
217.78117719830001
  0
LINE
  8
_0-0_0
  6
CONTINUOUS
 62
    7
 10
205.0323859152
 20
217.78117719830001
 11
204.92639498919999
 21
217.81601078520001
  0
LINE
  8
_0-0_0
  6
CONTINUOUS
 62
    7
 10
177.64944647549999
 20
211.44120674610002
 11
177.64944647549999
 21
216.5612067461
  0
LINE
  8
_0-0_0
  6
CONTINUOUS
 62
    7
 10
177.3314464755
 20
217.20120674610001
 11
177.3314464755
 21
211.44120674610002
  0
LINE
  8
_0-0_0
  6
CONTINUOUS
 62
    7
 10
177.65044647549999
 20
211.44120674610002
 11
177.3304464755
 21
211.44120674610002
  0
LINE
  8
_0-0_0
  6
CONTINUOUS
 62
    7
 10
177.63044647550001
 20
211.30120674610001
 11
177.35044647550001
 21
211.30120674610001
  0
LINE
  8
_0-0_0
  6
CONTINUOUS
 62
    7
 10
201.3592631855
 20
211.44120674610002
 11
201.13044647550001
 21
211.44120674610002
  0
LINE
  8
_0-0_0
  6
CONTINUOUS
 62
    7
 10
201.4504464755
 20
211.44120674610002
 11
201.3592631855
 21
211.44120674610002
  0
LINE
  8
_0-0_0
  6
CONTINUOUS
 62
    7
 10
201.35066109669998
 20
211.30120674610001
 11
201.15044647549999
 21
211.30120674610001
  0
LINE
  8
_0-0_0
  6
CONTINUOUS
 62
    7
 10
201.43044647549999
 20
211.30120674610001
 11
201.35066109669998
 21
211.30120674610001
  0
LINE
  8
_0-0_0
  6
CONTINUOUS
 62
    7
 10
174.61047343849998
 20
217.20120674610001
 11
189.3904464755
 21
217.20120674610001
  0
LINE
  8
_0-0_0
  6
CONTINUOUS
 62
    7
 10
174.6104464755
 20
217.9012067461
 11
174.53363882759999
 21
217.89601146240003
  0
LINE
  8
_0-0_0
  6
CONTINUOUS
 62
    7
 10
174.53363882759999
 20
217.89601146240003
 11
174.4570425654
 21
217.87933850940001
  0
LINE
  8
_0-0_0
  6
CONTINUOUS
 62
    7
 10
174.4570425654
 20
217.87933850940001
 11
174.38103117989999
 21
217.8481914907
  0
LINE
  8
_0-0_0
  6
CONTINUOUS
 62
    7
 10
174.38103117989999
 20
217.8481914907
 11
174.3248387598
 21
217.81255059400002
  0
LINE
  8
_0-0_0
  6
CONTINUOUS
 62
    7
 10
174.3248387598
 20
217.81255059400002
 11
174.27023590279998
 21
217.761227308
  0
LINE
  8
_0-0_0
  6
CONTINUOUS
 62
    7
 10
174.27023590279998
 20
217.761227308
 11
174.24413741859999
 21
217.72707283990002
  0
LINE
  8
_0-0_0
  6
CONTINUOUS
 62
    7
 10
174.24413741859999
 20
217.72707283990002
 11
174.21988442739999
 21
217.68362520470001
  0
LINE
  8
_0-0_0
  6
CONTINUOUS
 62
    7
 10
174.21988442739999
 20
217.68362520470001
 11
174.2090136715
 21
217.65715793380002
  0
LINE
  8
_0-0_0
  6
CONTINUOUS
 62
    7
 10
174.2090136715
 20
217.65715793380002
 11
174.19971182640001
 21
217.62639013400002
  0
LINE
  8
_0-0_0
  6
CONTINUOUS
 62
    7
 10
174.19971182640001
 20
217.62639013400002
 11
174.1930031306
 21
217.59078008590001
  0
LINE
  8
_0-0_0
  6
CONTINUOUS
 62
    7
 10
174.1930031306
 20
217.59078008590001
 11
174.19044647619998
 21
217.55122721130002
  0
LINE
  8
_0-0_0
  6
CONTINUOUS
 62
    7
 10
174.19044647619998
 20
217.55122721130002
 11
174.1929984237
 21
217.51167264810002
  0
LINE
  8
_0-0_0
  6
CONTINUOUS
 62
    7
 10
174.1929984237
 20
217.51167264810002
 11
174.19970437809999
 21
217.47605572150002
  0
LINE
  8
_0-0_0
  6
CONTINUOUS
 62
    7
 10
174.19970437809999
 20
217.47605572150002
 11
174.2090058805
 21
217.4452872837
  0
LINE
  8
_0-0_0
  6
CONTINUOUS
 62
    7
 10
174.2090058805
 20
217.4452872837
 11
174.21987449209999
 21
217.41881029610002
  0
LINE
  8
_0-0_0
  6
CONTINUOUS
 62
    7
 10
174.21987449209999
 20
217.41881029610002
 11
174.24415789919999
 21
217.37549205580001
  0
LINE
  8
_0-0_0
  6
CONTINUOUS
 62
    7
 10
174.24415789919999
 20
217.37549205580001
 11
174.27023282740001
 21
217.34119136610002
  0
LINE
  8
_0-0_0
  6
CONTINUOUS
 62
    7
 10
174.27023282740001
 20
217.34119136610002
 11
174.32481664209999
 21
217.2896950011
  0
LINE
  8
_0-0_0
  6
CONTINUOUS
 62
    7
 10
174.32481664209999
 20
217.2896950011
 11
174.38102454529999
 21
217.25422494010002
  0
LINE
  8
_0-0_0
  6
CONTINUOUS
 62
    7
 10
174.38102454529999
 20
217.25422494010002
 11
174.4570383784
 21
217.22308117670002
  0
LINE
  8
_0-0_0
  6
CONTINUOUS
 62
    7
 10
174.4570383784
 20
217.22308117670002
 11
174.53363661180001
 21
217.20640109070001
  0
LINE
  8
_0-0_0
  6
CONTINUOUS
 62
    7
 10
174.53363661180001
 20
217.20640109070001
 11
174.6104464755
 21
217.20120674610001
  0
LINE
  8
_0-0_0
  6
CONTINUOUS
 62
    7
 10
174.61048693339998
 20
217.9012067461
 11
189.3904464755
 21
217.9012067461
  0
LINE
  8
_0-0_0
  6
CONTINUOUS
 62
    7
 10
204.1704464755
 20
217.9012067461
 11
204.24725412339998
 21
217.89601146240003
  0
LINE
  8
_0-0_0
  6
CONTINUOUS
 62
    7
 10
204.24725412339998
 20
217.89601146240003
 11
204.3238503856
 21
217.87933850940001
  0
LINE
  8
_0-0_0
  6
CONTINUOUS
 62
    7
 10
204.3238503856
 20
217.87933850940001
 11
204.39986177110001
 21
217.8481914907
  0
LINE
  8
_0-0_0
  6
CONTINUOUS
 62
    7
 10
204.39986177110001
 20
217.8481914907
 11
204.4560541912
 21
217.81255059400002
  0
LINE
  8
_0-0_0
  6
CONTINUOUS
 62
    7
 10
204.4560541912
 20
217.81255059400002
 11
204.51065704819999
 21
217.761227308
  0
LINE
  8
_0-0_0
  6
CONTINUOUS
 62
    7
 10
204.51065704819999
 20
217.761227308
 11
204.53675553240001
 21
217.72707283990002
  0
LINE
  8
_0-0_0
  6
CONTINUOUS
 62
    7
 10
204.53675553240001
 20
217.72707283990002
 11
204.56100852359998
 21
217.68362520470001
  0
LINE
  8
_0-0_0
  6
CONTINUOUS
 62
    7
 10
204.56100852359998
 20
217.68362520470001
 11
204.5718792795
 21
217.65715793380002
  0
LINE
  8
_0-0_0
  6
CONTINUOUS
 62
    7
 10
204.5718792795
 20
217.65715793380002
 11
204.58118112459999
 21
217.62639013400002
  0
LINE
  8
_0-0_0
  6
CONTINUOUS
 62
    7
 10
204.58118112459999
 20
217.62639013400002
 11
204.58788982039999
 21
217.59078008590001
  0
LINE
  8
_0-0_0
  6
CONTINUOUS
 62
    7
 10
204.58788982039999
 20
217.59078008590001
 11
204.59044647479999
 21
217.55122721130002
  0
LINE
  8
_0-0_0
  6
CONTINUOUS
 62
    7
 10
204.59044647479999
 20
217.55122721130002
 11
204.58789452729999
 21
217.51167264810002
  0
LINE
  8
_0-0_0
  6
CONTINUOUS
 62
    7
 10
204.58789452729999
 20
217.51167264810002
 11
204.5811885729
 21
217.47605572150002
  0
LINE
  8
_0-0_0
  6
CONTINUOUS
 62
    7
 10
204.5811885729
 20
217.47605572150002
 11
204.5718870705
 21
217.4452872837
  0
LINE
  8
_0-0_0
  6
CONTINUOUS
 62
    7
 10
204.5718870705
 20
217.4452872837
 11
204.56101845890001
 21
217.41881029610002
  0
LINE
  8
_0-0_0
  6
CONTINUOUS
 62
    7
 10
204.56101845890001
 20
217.41881029610002
 11
204.53673505180001
 21
217.37549205580001
  0
LINE
  8
_0-0_0
  6
CONTINUOUS
 62
    7
 10
204.53673505180001
 20
217.37549205580001
 11
204.51066012359999
 21
217.34119136610002
  0
LINE
  8
_0-0_0
  6
CONTINUOUS
 62
    7
 10
204.51066012359999
 20
217.34119136610002
 11
204.45607630889998
 21
217.2896950011
  0
LINE
  8
_0-0_0
  6
CONTINUOUS
 62
    7
 10
204.45607630889998
 20
217.2896950011
 11
204.3998684057
 21
217.25422494010002
  0
LINE
  8
_0-0_0
  6
CONTINUOUS
 62
    7
 10
204.3998684057
 20
217.25422494010002
 11
204.3238545726
 21
217.22308117670002
  0
LINE
  8
_0-0_0
  6
CONTINUOUS
 62
    7
 10
204.3238545726
 20
217.22308117670002
 11
204.24725633919999
 21
217.20640109070001
  0
LINE
  8
_0-0_0
  6
CONTINUOUS
 62
    7
 10
204.24725633919999
 20
217.20640109070001
 11
204.1704464755
 21
217.20120674610001
  0
LINE
  8
_0-0_0
  6
CONTINUOUS
 62
    7
 10
204.1704489704
 20
217.20120674610001
 11
189.3904464755
 21
217.20120674610001
  0
LINE
  8
_0-0_0
  6
CONTINUOUS
 62
    7
 10
204.1704489704
 20
217.9012067461
 11
189.3904464755
 21
217.9012067461
  0
LINE
  8
_0-0_0
  6
CONTINUOUS
 62
    7
 10
174.59044647549999
 20
217.9012067461
 11
174.61048693339998
 21
217.9012067461
  0
LINE
  8
_0-0_0
  6
CONTINUOUS
 62
    7
 10
174.59044647549999
 20
217.20120674610001
 11
174.61047343849998
 21
217.20120674610001
  0
ARC
  8
_0-0_0
  6
CONTINUOUS
 62
    7
 10
174.5378698207
 20
215.15089820240001
 40
2.7508110422782739
 50
88.90483067880001
 51
104.3843312823
  0
ARC
  8
_0-0_0
  6
CONTINUOUS
 62
    7
 10
174.53873186299998
 20
219.96429210160002
 40
2.763569265089644
 50
255.65756774580001
 51
271.07223728000002
  0
LINE
  8
_0-0_0
  6
CONTINUOUS
 62
    7
 10
204.19044647549998
 20
217.20120674610001
 11
204.1704489704
 21
217.20120674610001
  0
LINE
  8
_0-0_0
  6
CONTINUOUS
 62
    7
 10
204.19044647549998
 20
217.9012067461
 11
204.1704489704
 21
217.9012067461
  0
ARC
  8
_0-0_0
  6
CONTINUOUS
 62
    7
 10
204.24299705069998
 20
215.15057470420001
 40
2.7511339831715662
 50
75.612018769499997
 51
91.094497511599997
  0
ARC
  8
_0-0_0
  6
CONTINUOUS
 62
    7
 10
204.2421850195
 20
219.96399318550002
 40
2.76327084925834
 50
268.92715061029992
 51
284.33916712939993
  0
LINE
  8
_0-0_0
  6
CONTINUOUS
 62
    7
 10
201.14320178119999
 20
216.5612067461
 11
201.14320178119999
 21
217.20120674610001
  0
LINE
  8
_0-0_0
  6
CONTINUOUS
 62
    7
 10
201.14320178119999
 20
216.5612067461
 11
177.63769116980001
 21
216.5612067461
  0
LINE
  8
_0-0_0
  6
CONTINUOUS
 62
    7
 10
177.63769116980001
 20
216.5612067461
 11
177.63769116980001
 21
217.20120674610001
  0
POINT
  8
_0-0_0
 62
    7
 10
173.49502930739999
 20
217.58388691010001
  0
POINT
  8
_0-0_0
 62
    7
 10
205.2858465114
 20
217.58388691010001
  0
INSERT
  2
-010-_D_9
  8
_0-0_0
 10
-5.9000000000000057
 20
8.8000000000000114
 41
1
 42
1
 50
0
  0
LINE
  8
_0-0_0
  6
CONTINUOUS
 62
    7
 10
189.3904464755
 20
253.2613994413
 11
174.1904477599
 21
253.2613994413
  0
LINE
  8
_0-0_0
  6
CONTINUOUS
 62
    7
 10
204.5904451911
 20
253.2613994413
 11
189.3904464755
 21
253.2613994413
  0
LINE
  8
_0-0_0
  6
CONTINUOUS
 62
    7
 10
173.49044647549999
 20
252.5613981569
 11
173.49044647549999
 21
248.06139944130001
  0
LINE
  8
_0-0_0
  6
CONTINUOUS
 62
    7
 10
205.2904464755
 20
248.06139944130001
 11
205.2904464755
 21
252.5613981569
  0
LINE
  8
_0-0_0
  6
CONTINUOUS
 62
    7
 10
205.2904464755
 20
243.56140072570003
 11
205.2904464755
 21
248.06139944130001
  0
LINE
  8
_0-0_0
  6
CONTINUOUS
 62
    7
 10
173.49044647549999
 20
248.06139944130001
 11
173.49044647549999
 21
243.56140072570003
  0
LINE
  8
_0-0_0
  6
CONTINUOUS
 62
    7
 10
174.1904477599
 20
242.86139944130002
 11
189.3904464755
 21
242.86139944130002
  0
LINE
  8
_0-0_0
  6
CONTINUOUS
 62
    7
 10
189.3904464755
 20
242.86139944130002
 11
204.5904451911
 21
242.86139944130002
  0
ARC
  8
_0-0_0
  6
CONTINUOUS
 62
    7
 10
204.59058440659999
 20
252.5615373725
 40
0.6998620824253912
 50
359.98870795670001
 51
90.011292043299974
  0
ARC
  8
_0-0_0
  6
CONTINUOUS
 62
    7
 10
174.19030854439998
 20
243.56126151020001
 40
0.6998620824253344
 50
179.98870795670001
 51
270.01129204329999
  0
ARC
  8
_0-0_0
  6
CONTINUOUS
 62
    7
 10
174.19030854439998
 20
252.5615373725
 40
0.6998620824253912
 50
89.988707956699997
 51
180.01129204329999
  0
ARC
  8
_0-0_0
  6
CONTINUOUS
 62
    7
 10
204.59058440659999
 20
243.56126151020001
 40
0.6998620824253344
 50
269.98870795670001
 51
0.0112920432999759
  0
INSERT
  2
-011-_D_10
  8
_0-0_0
 10
-5.9000000000000057
 20
8.8000000000000114
 41
1
 42
1
 50
0
  0
ARC
  8
_0-0_0
  6
CONTINUOUS
 62
    7
 10
243.99063790259999
 20
211.32120674610002
 40
0.0200000000000102
 50
270.00000000009999
 51
0.0000000000000127
  0
ARC
  8
_0-0_0
  6
CONTINUOUS
 62
    7
 10
243.71063790259998
 20
211.32120674610002
 40
0.0199999999999818
 50
180
 51
270
  0
LINE
  8
_0-0_0
  6
CONTINUOUS
 62
    7
 10
244.0106379026
 20
211.32120674610002
 11
244.0106379026
 21
211.44120674610002
  0
LINE
  8
_0-0_0
  6
CONTINUOUS
 62
    7
 10
243.6906379026
 20
211.44120674610002
 11
243.6906379026
 21
211.32120674610002
  0
ARC
  8
_0-0_0
  6
CONTINUOUS
 62
    7
 10
250.79063790259997
 20
211.32120674610002
 40
0.0199999999999818
 50
270
 51
0
  0
ARC
  8
_0-0_0
  6
CONTINUOUS
 62
    7
 10
250.5106379026
 20
211.32120674610002
 40
0.0199999999999818
 50
180
 51
270
  0
LINE
  8
_0-0_0
  6
CONTINUOUS
 62
    7
 10
250.81063790260001
 20
211.32120674610002
 11
250.81063790260001
 21
211.44120674610002
  0
LINE
  8
_0-0_0
  6
CONTINUOUS
 62
    7
 10
250.49063790260001
 20
211.44120674610002
 11
250.49063790260001
 21
211.32120674610002
  0
LINE
  8
_0-0_0
  6
CONTINUOUS
 62
    7
 10
244.00963790259999
 20
211.44120674610002
 11
244.00963790259999
 21
216.0612067461
  0
LINE
  8
_0-0_0
  6
CONTINUOUS
 62
    7
 10
244.00963790259999
 20
216.70120674610001
 11
244.00963790259999
 21
217.20120674610001
  0
LINE
  8
_0-0_0
  6
CONTINUOUS
 62
    7
 10
243.69163790260001
 20
217.20120674610001
 11
243.69163790260001
 21
211.44120674610002
  0
LINE
  8
_0-0_0
  6
CONTINUOUS
 62
    7
 10
252.08669547870002
 20
217.2862562242
 11
252.18681043879999
 21
217.31928775400002
  0
LINE
  8
_0-0_0
  6
CONTINUOUS
 62
    7
 10
252.18681043879999
 20
217.31928775400002
 11
252.26876923759997
 21
217.35607281010002
  0
LINE
  8
_0-0_0
  6
CONTINUOUS
 62
    7
 10
252.26876923759997
 20
217.35607281010002
 11
252.33334821010001
 21
217.39574422200002
  0
LINE
  8
_0-0_0
  6
CONTINUOUS
 62
    7
 10
252.33334821010001
 20
217.39574422200002
 11
252.37111028040002
 21
217.4268351442
  0
LINE
  8
_0-0_0
  6
CONTINUOUS
 62
    7
 10
252.37111028040002
 20
217.4268351442
 11
252.4003530491
 21
217.45829575340002
  0
LINE
  8
_0-0_0
  6
CONTINUOUS
 62
    7
 10
252.4003530491
 20
217.45829575340002
 11
252.42184407810001
 21
217.4920504854
  0
LINE
  8
_0-0_0
  6
CONTINUOUS
 62
    7
 10
252.42184407810001
 20
217.4920504854
 11
252.43403961020002
 21
217.52797515270001
  0
LINE
  8
_0-0_0
  6
CONTINUOUS
 62
    7
 10
252.43403961020002
 20
217.52797515270001
 11
252.43574924710001
 21
217.5627876966
  0
LINE
  8
_0-0_0
  6
CONTINUOUS
 62
    7
 10
252.43574924710001
 20
217.5627876966
 11
252.4296202697
 21
217.59149804930001
  0
LINE
  8
_0-0_0
  6
CONTINUOUS
 62
    7
 10
252.4296202697
 20
217.59149804930001
 11
252.42457149279997
 21
217.60481000600001
  0
LINE
  8
_0-0_0
  6
CONTINUOUS
 62
    7
 10
252.42457149279997
 20
217.60481000600001
 11
252.41675826119999
 21
217.62105540660002
  0
LINE
  8
_0-0_0
  6
CONTINUOUS
 62
    7
 10
252.41675826119999
 20
217.62105540660002
 11
252.38973950390002
 21
217.65960700300002
  0
LINE
  8
_0-0_0
  6
CONTINUOUS
 62
    7
 10
252.38973950390002
 20
217.65960700300002
 11
252.34428682590001
 21
217.70142427750002
  0
LINE
  8
_0-0_0
  6
CONTINUOUS
 62
    7
 10
252.34428682590001
 20
217.70142427750002
 11
252.2786988883
 21
217.7426050192
  0
LINE
  8
_0-0_0
  6
CONTINUOUS
 62
    7
 10
252.2786988883
 20
217.7426050192
 11
252.19257734239997
 21
217.78117719830001
  0
LINE
  8
_0-0_0
  6
CONTINUOUS
 62
    7
 10
252.19257734239997
 20
217.78117719830001
 11
252.08658641639997
 21
217.81601078520001
  0
LINE
  8
_0-0_0
  6
CONTINUOUS
 62
    7
 10
242.4146893889
 20
217.81601078520001
 11
242.3378546985
 21
217.79170983700001
  0
LINE
  8
_0-0_0
  6
CONTINUOUS
 62
    7
 10
242.3378546985
 20
217.79170983700001
 11
242.27127709819999
 21
217.76511785260001
  0
LINE
  8
_0-0_0
  6
CONTINUOUS
 62
    7
 10
242.27127709819999
 20
217.76511785260001
 11
242.2147479681
 21
217.73678805400002
  0
LINE
  8
_0-0_0
  6
CONTINUOUS
 62
    7
 10
242.2147479681
 20
217.73678805400002
 11
242.1679087178
 21
217.7067531374
  0
LINE
  8
_0-0_0
  6
CONTINUOUS
 62
    7
 10
242.1679087178
 20
217.7067531374
 11
242.13018426849999
 21
217.67559130330002
  0
LINE
  8
_0-0_0
  6
CONTINUOUS
 62
    7
 10
242.13018426849999
 20
217.67559130330002
 11
242.10093357719998
 21
217.6441417963
  0
LINE
  8
_0-0_0
  6
CONTINUOUS
 62
    7
 10
242.10093357719998
 20
217.6441417963
 11
242.07944259819999
 21
217.61038586630002
  0
LINE
  8
_0-0_0
  6
CONTINUOUS
 62
    7
 10
242.07944259819999
 20
217.61038586630002
 11
242.06724092979999
 21
217.57446561310002
  0
LINE
  8
_0-0_0
  6
CONTINUOUS
 62
    7
 10
242.06724092979999
 20
217.57446561310002
 11
242.0655238965
 21
217.53965433550002
  0
LINE
  8
_0-0_0
  6
CONTINUOUS
 62
    7
 10
242.0655238965
 20
217.53965433550002
 11
242.07164644669999
 21
217.5109455523
  0
LINE
  8
_0-0_0
  6
CONTINUOUS
 62
    7
 10
242.07164644669999
 20
217.5109455523
 11
242.0766928795
 21
217.49762979720001
  0
LINE
  8
_0-0_0
  6
CONTINUOUS
 62
    7
 10
242.0766928795
 20
217.49762979720001
 11
242.08450433260001
 21
217.4813809275
  0
LINE
  8
_0-0_0
  6
CONTINUOUS
 62
    7
 10
242.08450433260001
 20
217.4813809275
 11
242.1115207551
 21
217.44283051160002
  0
LINE
  8
_0-0_0
  6
CONTINUOUS
 62
    7
 10
242.1115207551
 20
217.44283051160002
 11
242.15699087359999
 21
217.40105427980001
  0
LINE
  8
_0-0_0
  6
CONTINUOUS
 62
    7
 10
242.15699087359999
 20
217.40105427980001
 11
242.2225878866
 21
217.35990121930001
  0
LINE
  8
_0-0_0
  6
CONTINUOUS
 62
    7
 10
242.2225878866
 20
217.35990121930001
 11
242.3086464703
 21
217.32120732660002
  0
LINE
  8
_0-0_0
  6
CONTINUOUS
 62
    7
 10
242.3086464703
 20
217.32120732660002
 11
242.41458032649999
 21
217.2862562242
  0
LINE
  8
_0-0_0
  6
CONTINUOUS
 62
    7
 10
250.80963790259997
 20
211.44120674610002
 11
250.80963790259997
 21
217.20120674610001
  0
LINE
  8
_0-0_0
  6
CONTINUOUS
 62
    7
 10
250.49163790259999
 20
217.20120674610001
 11
250.49163790259999
 21
216.70120674610001
  0
LINE
  8
_0-0_0
  6
CONTINUOUS
 62
    7
 10
250.49163790259999
 20
216.0612067461
 11
250.49163790259999
 21
211.44120674610002
  0
LINE
  8
_0-0_0
  6
CONTINUOUS
 62
    7
 10
243.7242488233
 20
211.30120674610001
 11
243.71063790259998
 21
211.30120674610001
  0
LINE
  8
_0-0_0
  6
CONTINUOUS
 62
    7
 10
243.99063790259999
 20
211.30120674610001
 11
243.7242488233
 21
211.30120674610001
  0
LINE
  8
_0-0_0
  6
CONTINUOUS
 62
    7
 10
243.7061932405
 20
211.44120674610002
 11
243.6906379026
 21
211.44120674610002
  0
LINE
  8
_0-0_0
  6
CONTINUOUS
 62
    7
 10
244.0106379026
 20
211.44120674610002
 11
243.7061932405
 21
211.44120674610002
  0
LINE
  8
_0-0_0
  6
CONTINUOUS
 62
    7
 10
250.79063790259997
 20
211.30120674610001
 11
250.5106379026
 21
211.30120674610001
  0
LINE
  8
_0-0_0
  6
CONTINUOUS
 62
    7
 10
250.81063790260001
 20
211.44120674610002
 11
250.49063790260001
 21
211.44120674610002
  0
LINE
  8
_0-0_0
  6
CONTINUOUS
 62
    7
 10
247.2506379026
 20
217.20120674610001
 11
251.33063790259999
 21
217.20120674610001
  0
LINE
  8
_0-0_0
  6
CONTINUOUS
 62
    7
 10
247.2506379026
 20
217.9012067461
 11
251.33063790259999
 21
217.9012067461
  0
LINE
  8
_0-0_0
  6
CONTINUOUS
 62
    7
 10
251.33063790259999
 20
217.9012067461
 11
251.40744555059999
 21
217.89601146240003
  0
LINE
  8
_0-0_0
  6
CONTINUOUS
 62
    7
 10
251.40744555059999
 20
217.89601146240003
 11
251.48404181279997
 21
217.87933850940001
  0
LINE
  8
_0-0_0
  6
CONTINUOUS
 62
    7
 10
251.48404181279997
 20
217.87933850940001
 11
251.56005319819999
 21
217.8481914907
  0
LINE
  8
_0-0_0
  6
CONTINUOUS
 62
    7
 10
251.56005319819999
 20
217.8481914907
 11
251.61624561839997
 21
217.81255059400002
  0
LINE
  8
_0-0_0
  6
CONTINUOUS
 62
    7
 10
251.61624561839997
 20
217.81255059400002
 11
251.67084847530001
 21
217.761227308
  0
LINE
  8
_0-0_0
  6
CONTINUOUS
 62
    7
 10
251.67084847530001
 20
217.761227308
 11
251.69694695960001
 21
217.72707283990002
  0
LINE
  8
_0-0_0
  6
CONTINUOUS
 62
    7
 10
251.69694695960001
 20
217.72707283990002
 11
251.72119995080001
 21
217.68362520470001
  0
LINE
  8
_0-0_0
  6
CONTINUOUS
 62
    7
 10
251.72119995080001
 20
217.68362520470001
 11
251.73207070660001
 21
217.65715793380002
  0
LINE
  8
_0-0_0
  6
CONTINUOUS
 62
    7
 10
251.73207070660001
 20
217.65715793380002
 11
251.74137255169998
 21
217.62639013400002
  0
LINE
  8
_0-0_0
  6
CONTINUOUS
 62
    7
 10
251.74137255169998
 20
217.62639013400002
 11
251.74808124749998
 21
217.59078008590001
  0
LINE
  8
_0-0_0
  6
CONTINUOUS
 62
    7
 10
251.74808124749998
 20
217.59078008590001
 11
251.75063790189998
 21
217.55122721130002
  0
LINE
  8
_0-0_0
  6
CONTINUOUS
 62
    7
 10
251.75063790189998
 20
217.55122721130002
 11
251.7480859545
 21
217.51167264810002
  0
LINE
  8
_0-0_0
  6
CONTINUOUS
 62
    7
 10
251.7480859545
 20
217.51167264810002
 11
251.74138000010001
 21
217.47605572150002
  0
LINE
  8
_0-0_0
  6
CONTINUOUS
 62
    7
 10
251.74138000010001
 20
217.47605572150002
 11
251.73207849759999
 21
217.4452872837
  0
LINE
  8
_0-0_0
  6
CONTINUOUS
 62
    7
 10
251.73207849759999
 20
217.4452872837
 11
251.72120988610001
 21
217.41881029610002
  0
LINE
  8
_0-0_0
  6
CONTINUOUS
 62
    7
 10
251.72120988610001
 20
217.41881029610002
 11
251.69692647899998
 21
217.37549205580001
  0
LINE
  8
_0-0_0
  6
CONTINUOUS
 62
    7
 10
251.69692647899998
 20
217.37549205580001
 11
251.67085155070001
 21
217.34119136610002
  0
LINE
  8
_0-0_0
  6
CONTINUOUS
 62
    7
 10
251.67085155070001
 20
217.34119136610002
 11
251.61626773610001
 21
217.2896950011
  0
LINE
  8
_0-0_0
  6
CONTINUOUS
 62
    7
 10
251.61626773610001
 20
217.2896950011
 11
251.56005983280002
 21
217.25422494010002
  0
LINE
  8
_0-0_0
  6
CONTINUOUS
 62
    7
 10
251.56005983280002
 20
217.25422494010002
 11
251.48404599969999
 21
217.22308117670002
  0
LINE
  8
_0-0_0
  6
CONTINUOUS
 62
    7
 10
251.48404599969999
 20
217.22308117670002
 11
251.4074477664
 21
217.20640109070001
  0
LINE
  8
_0-0_0
  6
CONTINUOUS
 62
    7
 10
251.4074477664
 20
217.20640109070001
 11
251.33063790259999
 21
217.20120674610001
  0
LINE
  8
_0-0_0
  6
CONTINUOUS
 62
    7
 10
247.2506379026
 20
217.9012067461
 11
243.17063790259999
 21
217.9012067461
  0
LINE
  8
_0-0_0
  6
CONTINUOUS
 62
    7
 10
247.2506379026
 20
217.20120674610001
 11
243.17063790259999
 21
217.20120674610001
  0
LINE
  8
_0-0_0
  6
CONTINUOUS
 62
    7
 10
243.17063790259999
 20
217.9012067461
 11
243.09383025469998
 21
217.89601146240003
  0
LINE
  8
_0-0_0
  6
CONTINUOUS
 62
    7
 10
243.09383025469998
 20
217.89601146240003
 11
243.0172339925
 21
217.87933850940001
  0
LINE
  8
_0-0_0
  6
CONTINUOUS
 62
    7
 10
243.0172339925
 20
217.87933850940001
 11
242.9412226071
 21
217.8481914907
  0
LINE
  8
_0-0_0
  6
CONTINUOUS
 62
    7
 10
242.9412226071
 20
217.8481914907
 11
242.8850301869
 21
217.81255059400002
  0
LINE
  8
_0-0_0
  6
CONTINUOUS
 62
    7
 10
242.8850301869
 20
217.81255059400002
 11
242.83042732999999
 21
217.761227308
  0
LINE
  8
_0-0_0
  6
CONTINUOUS
 62
    7
 10
242.83042732999999
 20
217.761227308
 11
242.80432884569998
 21
217.72707283990002
  0
LINE
  8
_0-0_0
  6
CONTINUOUS
 62
    7
 10
242.80432884569998
 20
217.72707283990002
 11
242.78007585449998
 21
217.68362520470001
  0
LINE
  8
_0-0_0
  6
CONTINUOUS
 62
    7
 10
242.78007585449998
 20
217.68362520470001
 11
242.76920509869998
 21
217.65715793380002
  0
LINE
  8
_0-0_0
  6
CONTINUOUS
 62
    7
 10
242.76920509869998
 20
217.65715793380002
 11
242.75990325359999
 21
217.62639013400002
  0
LINE
  8
_0-0_0
  6
CONTINUOUS
 62
    7
 10
242.75990325359999
 20
217.62639013400002
 11
242.75319455779999
 21
217.59078008590001
  0
LINE
  8
_0-0_0
  6
CONTINUOUS
 62
    7
 10
242.75319455779999
 20
217.59078008590001
 11
242.75063790339999
 21
217.55122721130002
  0
LINE
  8
_0-0_0
  6
CONTINUOUS
 62
    7
 10
242.75063790339999
 20
217.55122721130002
 11
242.7531898508
 21
217.51167264810002
  0
LINE
  8
_0-0_0
  6
CONTINUOUS
 62
    7
 10
242.7531898508
 20
217.51167264810002
 11
242.75989580519999
 21
217.47605572150002
  0
LINE
  8
_0-0_0
  6
CONTINUOUS
 62
    7
 10
242.75989580519999
 20
217.47605572150002
 11
242.76919730769998
 21
217.4452872837
  0
LINE
  8
_0-0_0
  6
CONTINUOUS
 62
    7
 10
242.76919730769998
 20
217.4452872837
 11
242.78006591919998
 21
217.41881029610002
  0
LINE
  8
_0-0_0
  6
CONTINUOUS
 62
    7
 10
242.78006591919998
 20
217.41881029610002
 11
242.80434932629998
 21
217.37549205580001
  0
LINE
  8
_0-0_0
  6
CONTINUOUS
 62
    7
 10
242.80434932629998
 20
217.37549205580001
 11
242.83042425459999
 21
217.34119136610002
  0
LINE
  8
_0-0_0
  6
CONTINUOUS
 62
    7
 10
242.83042425459999
 20
217.34119136610002
 11
242.88500806919998
 21
217.2896950011
  0
LINE
  8
_0-0_0
  6
CONTINUOUS
 62
    7
 10
242.88500806919998
 20
217.2896950011
 11
242.94121597239999
 21
217.25422494010002
  0
LINE
  8
_0-0_0
  6
CONTINUOUS
 62
    7
 10
242.94121597239999
 20
217.25422494010002
 11
243.01722980559998
 21
217.22308117670002
  0
LINE
  8
_0-0_0
  6
CONTINUOUS
 62
    7
 10
243.01722980559998
 20
217.22308117670002
 11
243.0938280389
 21
217.20640109070001
  0
LINE
  8
_0-0_0
  6
CONTINUOUS
 62
    7
 10
243.0938280389
 20
217.20640109070001
 11
243.17063790259999
 21
217.20120674610001
  0
LINE
  8
_0-0_0
  6
CONTINUOUS
 62
    7
 10
251.33063790259999
 20
217.9012067461
 11
251.35063790259997
 21
217.9012067461
  0
ARC
  8
_0-0_0
  6
CONTINUOUS
 62
    7
 10
251.40318847789999
 20
215.15057470420001
 40
2.751133983173585
 50
75.612018769499997
 51
91.094497511599997
  0
ARC
  8
_0-0_0
  6
CONTINUOUS
 62
    7
 10
251.40237644660002
 20
219.96399318550002
 40
2.7632708492587419
 50
268.92715061040002
 51
284.33916712950003
  0
LINE
  8
_0-0_0
  6
CONTINUOUS
 62
    7
 10
251.35063790259997
 20
217.20120674610001
 11
251.33063790259999
 21
217.20120674610001
  0
ARC
  8
_0-0_0
  6
CONTINUOUS
 62
    7
 10
243.09806124790001
 20
215.15089820240001
 40
2.750811042280715
 50
88.90483067880001
 51
104.3843312823
  0
ARC
  8
_0-0_0
  6
CONTINUOUS
 62
    7
 10
243.09892329019999
 20
219.96429210160002
 40
2.7635692650910628
 50
255.65756774580001
 51
271.07223728000002
  0
LINE
  8
_0-0_0
  6
CONTINUOUS
 62
    7
 10
243.17063790259999
 20
217.9012067461
 11
243.15063790259998
 21
217.9012067461
  0
LINE
  8
_0-0_0
  6
CONTINUOUS
 62
    7
 10
243.17063790259999
 20
217.20120674610001
 11
243.15063790259998
 21
217.20120674610001
  0
LINE
  8
_0-0_0
  6
CONTINUOUS
 62
    7
 10
250.50339320829997
 20
216.70120674610001
 11
250.50339320829997
 21
216.0612067461
  0
LINE
  8
_0-0_0
  6
CONTINUOUS
 62
    7
 10
243.99788259689998
 20
216.70120674610001
 11
250.50339320829997
 21
216.70120674610001
  0
LINE
  8
_0-0_0
  6
CONTINUOUS
 62
    7
 10
243.99788259689998
 20
216.0612067461
 11
250.50339320829997
 21
216.0612067461
  0
LINE
  8
_0-0_0
  6
CONTINUOUS
 62
    7
 10
243.99788259689998
 20
216.70120674610001
 11
243.99788259689998
 21
216.0612067461
  0
INSERT
  2
-012-_D_11
  8
_0-0_0
 10
-5.9000000000000057
 20
8.8000000000000114
 41
1
 42
1
 50
0
  0
ENDSEC
  0
EOF
